» » »

Halsey - Gasoline Tabs

Artists:  A B C D E F G H I J K L M N O P Q R S T U V W X Y Z # 

Gasoline Tabs

(ver. 2) Click to play this song!
Halsey
 Rating:
2.7/5 (22 votes)

 Gasoline  lessons Tabs too difficult? Try these video lessons and learn fast
 
                INTRO

e|----0--0--------|    |-------------------------|
B|----------3-----|    |---1-3-5-3--1----1-3-5-3-|
G|--2--2--2-------| x4 |-2-------------2---------| x2
D|----------------|    |-------------------------|
A|----------------|    |-------------------------|
E|----------------|    |-------------------------|


VERSES (works for the choruses too)

e|--------------|
B|---3---3------|
G|-2---2---2-0--|
D|--------------|
A|--------------|
E|--------------|


OUTRO

e|-------------|
B|---1-3-5-3---|
G|-2-----------| x2
D|-------------| 
A|-------------|
E|-------------|

            
Submit corrections


        Gasoline  lessons Hard to play? Try these video lessons and learn fast Gasoline  lessons
        
↑ Back to top | Tablatures and chords for acoustic guitar and electric guitar, ukulele, drums are parodies/interpretations of the original songs. You may use it for private study, scholarship, research or language learning purposes only