» » »

Halsey - Gasoline Tabs

Artists:  A B C D E F G H I J K L M N O P Q R S T U V W X Y Z # 

Gasoline Tabs

(ver. 1) Click to play this song!
Halsey
 Rating:
3.3/5 (26 votes)

 Gasoline  lessons Tabs too difficult? Try these video lessons and learn fast
 
                Standard Tuning
Capo 1

Guitar 1   
                     
e|---------------|           
B|----5----5---3-|         
G|-2----2----2---|   x8      
D|---------------|        
A|---------------|          
E|---------------|         


 Guitar 2

e|--------------|------------|
B|-----3/5-3----|-----3/5-3~-|
G|-2-5--------5-|-2-5--------|  x2
D|--------------|------------|
A|--------------|------------|
E|--------------|------------|            
Submit corrections


        Gasoline  lessons Hard to play? Try these video lessons and learn fast Gasoline  lessons
        
↑ Back to top | Tablatures and chords for acoustic guitar and electric guitar, ukulele, drums are parodies/interpretations of the original songs. You may use it for private study, scholarship, research or language learning purposes only