Home » H » Halsey »

Halsey - Gasoline Ukulele

Artists:  A B C D E F G H I J K L M N O P Q R S T U V W X Y Z # 

Gasoline Ukulele

(ver. 1) Click to play this song!
Halsey
[Intro]
A|---7---7---5-|---7---7---5-|---7---7---5-|---7---7---5-|
E|-5---5---5---|-5---5---5---|-5---5---5---|-5---5---5---|
C|-------------|-------------|-------------|-------------|
G|-------------|-------------|-------------|-------------|

A|---3-5-7-5---3-|---3-5-7-5-|---3-5-7-5---3-|---3-5-7-5-|
E|---------------|-----------|---------------|-----------|
C|---------------|-----------|---------------|-----------|
G|-2-------------|-2---------|-2-------------|-2---------|

Am G Dm F

[Verse 1]
A|---7---7---5-|
E|-5---5---5---| (repeat 4x throughout verse)
C|-------------|
G|-------------|

           Am                   G
Are you insane like me? Been in pain like me?
         Dm                          F
Bought a hundred dollar bottle of champagne like me?
        Am                             G
Just to pour that motherf**ker down the drain like me?
          Dm                            F
Would you use your water bill to dry the stain like me?

[Verse 2]
A|---7---7---5-|
E|-5---5---5---| (repeat 4x throughout verse)
C|-------------|
G|-------------|

        Am                          G
Are you high enough without the Mary Jane like me?
       Dm                         F
Do you tear yourself apart to entertain like me?
       Am                             G
Do the people whisper 'bout you on the train like me?
       Dm                                  F            Am G Dm
Saying that you shouldn't waste your pretty face like me?

[Chorus]
F
And all the people say
 Am                 G
"You can't wake up, this is not a dream
       Dm                        F
You're part of a machine, you are not a human being
          Am               G
With your face all made up, living on a screen
Dm                        F
Low on self esteem, so you run on gasoline"
 
[Post-Chorus]
Am                  G
Oh, ooh oh, ooh oh, oh
  Dm                         F
I think there's a flaw in my code
Am                  G
Oh, ooh oh, ooh oh, oh
      Dm                    F
These voices won't leave me alone

A|---7---7---5-|
E|-5---5---5---|
C|-------------|
G|-------------|

        Am                  G
Well my heart is gold and my hands are cold

[Interlude]
A|---7---7---5-|---7---7---5-|---7---|
E|-5---5---5---|-5---5---5---|-5---5-|
C|-------------|-------------|-------|
G|-------------|-------------|-------|

[Verse 3]
A|---7---7---5-|
E|-5---5---5---| (repeat 4x throughout verse)
C|-------------|
G|-------------|

           Am                    G
Are you deranged like me? Are you strange like me?
         Dm                             F    
Lighting matches just to swallow up the flame like me?
       Am                          G
Do you call yourself a f**king hurricane like me?
         Dm                                 F              Am G Dm
Pointing fingers cause you'll never take the blame like me?

[Chorus]
F
And all the people say
 Am                 G
"You can't wake up, this is not a dream
       Dm                        F
You're part of a machine, you are not a human being
          Am               G
With your face all made up, living on a screen
Dm                        F
Low on self esteem, so you run on gasoline"

[Post-Chorus]
Am                  G
Oh, ooh oh, ooh oh, oh
  Dm                         F
I think there's a flaw in my code
Am                  G
Oh, ooh oh, ooh oh, oh
      Dm                    F
These voices won't leave me alone
        Am                  G
Well my heart is gold and my hands are cold

[Outro]
A|---3-5-7-5-|---3-5-7-5-|
E|-----------|-----------|
C|-----------|-----------|
G|-2---------|-2---------|

Am G Dm F            
Submit corrections

↑ Back to top | Tablatures and chords for acoustic guitar and electric guitar, ukulele, drums are parodies/interpretations of the original songs. You may use it for private study, scholarship, research or language learning purposes only