Home » G » Goo Goo Dolls »

Goo Goo Dolls - Here Is Gone Bass

Artists:  A B C D E F G H I J K L M N O P Q R S T U V W X Y Z # 

Here Is Gone Bass

(ver. 2) Click to play this song!
Goo Goo Dolls

Tuneing: EADG

Intro: (00:00)
G|-----|-------|----|-----|
D|-----|-------|----|-----|
A|--1--|--4/-6-|----|-----| x2
E|-----|-------|-4--|--2--|

Verse 1: (00:19)
G|-----|-------|----|-----|
D|-----|-------|----|-----|
A|--1--|--4/-6-|----|-----| x3
E|-----|-------|-4--|--2--|

Pre-Chorus: (00:47)
G|------------|-----------|-----------|------------|
D|------------|-----------|-----------|------------|
A|--6-6-6-6-6-|-1-1-1-1-1-|-4-4-4-4-4-|-4-4-4-4-4--|
E|------------|-----------|-----------|------------|

G|-----------|-----------|-----------|------------|
D|-----------|-----------|-----------|------------|
A|-6-6-6-6-6-|-1-1-1-1-1-|-----------|------------|
E|-----------|-----------|-4-4-4-4-4-|-2-2-2-2-2--|

Chorus: (01:06)
G|----------|---------|-------|-------------|
D|----------|---------|-------|-------------|
A|--4-4-4-4-|-3-3-3-3-|-1-1-1-|-------------| x2
E|----------|---------|-------|-4-4--2-2-2--|

Break: (01:25)
G|-----|-------|----|-----|
D|-----|-------|----|-----|
A|--1--|--4/-6-|----|-----| 
E|-----|-------|-4--|--2--|

Verse 2: (01:34)
G|-----|-------|----|-----|
D|-----|-------|----|-----|
A|--1--|--4/-6-|----|-----| x2
E|-----|-------|-4--|--2--|

Pre-Chorus: (01:53)
G|------------|-----------|-----------|------------|
D|------------|-----------|-----------|------------|
A|--6-6-6-6-6-|-1-1-1-1-1-|-4-4-4-4-4-|-4-4-4-4-4--|
E|------------|-----------|-----------|------------|

G|-----------|-----------|-----------|------------|
D|-----------|-----------|-----------|------------|
A|-6-6-6-6-6-|-1-1-1-1-1-|-----------|------------|
E|-----------|-----------|-4-4-4-4-4-|-2-2-2-2-2--|

Chorus: (02:11)
G|----------|---------|-------|-------------|
D|----------|---------|-------|-------------|
A|--4-4-4-4-|-3-3-3-3-|-1-1-1-|-------------| x2
E|----------|---------|-------|-4-4--2-2-2--|

Bridge (02:30)
G|----------|---------|---------|----------|
D|----------|---------|---------|----------|
A|--1-1-1-1-|---------|-4-4-4-4-|----------|
E|----------|-2-2-2-2-|---------|-4-4-4-4--|

G|----------|---------|-----------------------------------|
D|----------|---------|-----------------------------------|
A|--1-1-1-1-|---------|-4-4-----1-1-----------------------|
E|----------|-2-2-2-2-|-----4-4-----4-4--2-2-2-2-2-2-2-2--|

Chorus/Outro: (02:52)
G|----------|---------|-------|-------------|    |-----|
D|----------|---------|-------|-------------|    |-----|
A|--4-4-4-4-|-3-3-3-3-|-1-1-1-|-------------| x6 |--4--|
E|----------|---------|-------|-4-4--2-2-2--|    |-----|



I think this is right, just listen to the song for better timing =)
Enjoy it...

Thomas Lundesgaard, Norway
            
Submit corrections

↑ Back to top | Tablatures and chords for acoustic guitar and electric guitar, ukulele, drums are parodies/interpretations of the original songs. You may use it for private study, scholarship, research or language learning purposes only