Home » G » Goo Goo Dolls »

Goo Goo Dolls - Here Is Gone Tabs

Artists:  A B C D E F G H I J K L M N O P Q R S T U V W X Y Z # 

Here Is Gone Tabs

(ver. 3) Click to play this song!
Goo Goo Dolls
I got this straight from their performance on Jay Leno so im pretty sure this is correct.
Tuning - DADADD
listen to the song to figure out the strumming it might not be right here
 order-

Intro 2x
verse x3
pre-chorus 
chorus
intro x1 
verse x2
pre-chorus
chorus
bridge
chorus x 6 (at end end on x7x5xx)

--10/12-12\10-10-10/12-12\10-10-----------------------------------------------
--10/12-12\10-10-10/12-12\10-10--7---5----------------------------------------
---------------------------------7---5----------------------------------------
  intro/verse                 strum ----->                                    

--2---12--0--------------------------------2-12-------------------------------
--2---12--0--------------------------------2-12-7-5---------------------------
------------------------------------------------7-5---------------------------
  strum---> (im not the one who broke you) (i thought i lost you somewhere)   

---5--4-----------------------------------------------------------------------
---x--x--4--------------------------------------------------------------------
---7--7--2--7--5--------------------------------------------------------------
------------7--5--------------------------------------------------------------
   chorus (strum)                                                             

------------4--------------7-------------7------------------------------------
------------2------5-------5-------------4------------------------------------
-------------------5----------------------------------------------------------
 bridge  "and i" "need" "of all"  "in between us"                             

------4-----------------------7-------7----------4----------------------------
------2------------5----------5-------4----------2-------7------5-------------
-------------------5-------------------------------------7------5-------------
   "and im"   "holdin on"  "and all"  "lies"  "enough" "keep" "here"(strum)
            
Submit corrections

↑ Back to top | Tablatures and chords for acoustic guitar and electric guitar, ukulele, drums are parodies/interpretations of the original songs. You may use it for private study, scholarship, research or language learning purposes only