Home » G » Goo Goo Dolls »

Goo Goo Dolls - Here Is Gone Bass

Artists:  A B C D E F G H I J K L M N O P Q R S T U V W X Y Z # 

Here Is Gone Bass

(ver. 1) Click to play this song!
Goo Goo Dolls
Goo Goo Dolls "Here is Gone"

 The number of hits may be off,
 But it's correct.

 Verse: (Repeat)
G|--------------------------|
D|--------------------------|
A|-------4----4h6-----------|
E|-6-----------------4----2-|
 
 Pre-Chorus:
G|---------------------------------------------|
D|---------------------------------------------|
A|-6-6-6-6--6------------4-4-4-4--4-4-4-4-4--4-|
E|------------6-6-6-6--6-----------------------|

G|---------------------------------------------|
D|---------------------------------------------|
A|-6-6-6-6--6----------------------------------|
E|------------6-6-6-6--6-4-4-4-4--4-2-2-2-2--2-|

 Chorus & Outro: (Repeat x2 except for Outro)
G|---------------------------------------------|
D|---------------------------------------------|
A|-4-4-4-4--4-3-3-3-3--3-----------------------|
E|-----------------------6-6-6-6--6-4-4-4-4--4-|

 Bridge:
G|-----------------------------------------------------------|
D|-----------------------------------------------------------|
A|----------3-4------------------4-4-4-4-4-4-4-3-3-3-3-3-4-6-|
E|-6-6-6-6-6---2-2-2-2-2-2-2-2/4-----------------------------|

G|-----------------------------------------------------------|
D|-----------------------------------------------------------|
A|----------3-4----------------4--3--------------------------|
E|-6-6-6-6-6---2-2-2-2-2-2-2-2-------6--4--2-2-2-2-2-2-2-2-2-|
            
Submit corrections

↑ Back to top | Tablatures and chords for acoustic guitar and electric guitar, ukulele, drums are parodies/interpretations of the original songs. You may use it for private study, scholarship, research or language learning purposes only