» » »

Girlpool - I Like That You Can See It Tabs

Artists:  A B C D E F G H I J K L M N O P Q R S T U V W X Y Z # 

I Like That You Can See It Tabs

(ver. 2) Click to play this song!
Girlpool
 Rating:
2/5 (29 votes)

 I Like That You Can See It  lessons Tabs too difficult? Try these video lessons and learn fast
 
                                                Intro:
e|---------------------------------------------------------------|
B|---------------------------7-----------------------------------|
G|-----------------------------7--6------------------------------|x2
D|-----7---7---7---7-----5-----------7---------------------------|
A|-7\9---9---9---9---5\7---7-------------------------------------|
E|---------------------------------------------------------------|

                              1st verse:
e|---------------------------------------------------------------|
B|---------------------------------------------------------------|
G|---------------------------------------------------------------|x2
D|-----7---7---7---7-----5---5---5---5---------------------------|
A|-7\9---9---9---9---5\7---7---7---7-----------------------------|
E|---------------------------------------------------------------|

                          In between verses:
e|---------------------------------------------------------------|
B|---------------------------7-----------------------------------|
G|-----------------------------7--6------------------------------|x2
D|-----7---7---7---7-----5-----------7---------------------------|
A|-7\9---9---9---9---5\7---7-------------------------------------|
E|---------------------------------------------------------------|

                              2nd verse:
e|---------------------------------------------------------------|
B|---------------------------------------------------------------|
G|---------------------------------------------------------------|x2
D|-----7---7---7---7-----5---5---5---5---------------------------|
A|-7\9---9---9---9---5\7---7---7---7-----------------------------|
E|---------------------------------------------------------------|

                          In between verses:
e|---------------------------------------------------------------|
B|---------------------------7-----------------------------------|
G|-----------------------------7--6------------------------------|x2
D|-----7---7---7---7-----5-----------7---------------------------|
A|-7\9---9---9---9---5\7---7-------------------------------------|
E|---------------------------------------------------------------|

                      3rd verse(and a bit after):
e|---------------------------------------------------------------|
B|---------------------------------------------------------------|
G|---------------------------------------------------------------|x5
D|-----7---7---7---7-----5---5---5---5---------------------------|
A|-7\9---9---9---9---5\7---7---7---7-----------------------------|
E|---------------------------------------------------------------|

                     In between verses(only once):
e|---------------------------------------------------------------|
B|---------------------------7-----------------------------------|
G|-----------------------------7--6------------------------------|x1
D|-----7---7---7---7-----5-----------7---------------------------|
A|-7\9---9---9---9---5\7---7-------------------------------------|
E|---------------------------------------------------------------|

                             4th verse:
e|---------------------------------------------------------------|
B|---------------------------------------------------------------|
G|---------------------------------------------------------------|x4
D|-----7---7---7---7-----5---5---5---5---------------------------|
A|-7\9---9---9---9---5\7---7---7---7-----------------------------|
E|---------------------------------------------------------------|

                              Outro:
e|---------------------------------------------------------------|
B|---------------------------------------------------------------|
G|---------------------------------------------------------------|x1
D|-----7---------------------------------------------------------|
A|-7\9-----------------------------------------------------------|
E|---------------------------------------------------------------|            
Submit corrections


        I Like That You Can See It  lessons Hard to play? Try these video lessons and learn fast I Like That You Can See It  lessons
        
↑ Back to top | Tablatures and chords for acoustic guitar and electric guitar, ukulele, drums are parodies/interpretations of the original songs. You may use it for private study, scholarship, research or language learning purposes only