» » »

Girlpool - I Like That You Can See It Tabs

Artists:  A B C D E F G H I J K L M N O P Q R S T U V W X Y Z # 

I Like That You Can See It Tabs

(ver. 1) Click to play this song!
Girlpool
 Rating:
3.4/5 (27 votes)

 I Like That You Can See It  lessons Tabs too difficult? Try these video lessons and learn fast
 
                Tuning: Standard

For most of the song the main part should go like this

e|---------------------------------------------------------------------------|
B|---------------------------------------------------------------------------|
G|----------2--------------0---------------2----------------0--------------------|
D|--2--2/4-----4--4--4--2----2--2--2--2/4-----4---4---4--4-----2-----------------------------|
A|---------------------------------------------------------------------------|
E|---------------------------------------------------------------------------|




For in between verses when the song varies from this pattern, it should switch to this

e|----------2-----------------------------------------------------------------|
B|-------------3---2-----------------------------------------------------------|
G|----0----------------2-------------------------------------------------------|
D|-2--------------------------------------------------------------------------|
A|---------------------------------------------------------------------------|
E|---------------------------------------------------------------------------|

And then it will go back to the standard pattern.




For the underlying bass, I just use this pattern in place of a bass guitar

e|---------------------------------------------------------------------------|
B|---------------------------------------------------------------------------|
G|---------------------------------------------------------------------------|
D|---------------------------------------------------------------------------|
A|---------------------------------------------------------------------------|
E|--2--2--2--2--2--2--2-0--0--0--0--0--0--0--0--2--2--2--2--2--2--2--2--2----|

And just keep alternating this pattern throughout the whole song.            
Submit corrections


        I Like That You Can See It  lessons Hard to play? Try these video lessons and learn fast I Like That You Can See It  lessons
        
↑ Back to top | Tablatures and chords for acoustic guitar and electric guitar, ukulele, drums are parodies/interpretations of the original songs. You may use it for private study, scholarship, research or language learning purposes only