» » »

Girlpool - Ideal World Bass

Artists:  A B C D E F G H I J K L M N O P Q R S T U V W X Y Z # 

Ideal World Bass

(ver. 1) Click to play this song!
Girlpool
 Rating:
2.3/5 (30 votes)

 Ideal World  lessons Tabs too difficult? Try these video lessons and learn fast
 
                Tuning: Standard

G|---------------------------------------------------------------------------|
D|----------5-5-5-5-7-7-7-7-9-9-9-9---------5-5-5-5-7-7-7-7-9-9-9-9----------| 
A|--5-5-5-5-------------------------5-5-5-5----------------------------------|
E|---------------------------------------------------------------------------|

  I thought I found myself today,  no one's noticed...       things are okay
G|---------------------------------------------------------------------------|
D|---------5-5-5-5-7-7-7-7-9-9-9-9---------5-5-5-5-7-7-7-7----pause----------|
A|-5-5-5-5-------------------------5-5-5-5-----------------------------------|
E|---------------------------------------------------------------------------|

G|---------------------------------------------------------------------------|
D|----------5-5-5-5-7-7-7-7-9-9-9-9---------5-5-5-5-7-7-7-7-9-9-9-9----------| 
A|--5-5-5-5-------------------------5-5-5-5----------------------------------|
E|---------------------------------------------------------------------------|

  I took a walk down the street,   found nothing...           beneath my feet 
G|---------------------------------------------------------------------------|
D|---------5-5-5-5-7-7-7-7-9-9-9-9---------5-5-5-5-7-7-7-7----pause----------|
A|-5-5-5-5-------------------------5-5-5-5-----------------------------------|
E|---------------------------------------------------------------------------|

G|-------------------------------------------|
D|----------5-5-5-5-7-7-7-7-9-9-9-9----------| 
A|--5-5-5-5----------------------------------|
E|-------------------------------------------|
 
  I feel safest knowing I am true
G|---------------------------------------------------------------------------|
D|-----------------------------------------5-5-5-5-7-7-7-7-9-9-9-9-----------|
A|---------------------------------5-5-5-5-----------------------------------|
E|-2-2-2-2-2-2-2-2-5-5-5-5-5-5-5-5-------------------------------------------|

  when I look in your eyes the idea of you
G|---------------------------------------------------------------------------|
D|-----------------------------------------5-5-5-5-7-7-7-7-9-9-9-9-----------|
A|---------------------------------5-5-5-5-----------------------------------|
E|-2-2-2-2-2-2-2-2-5-5-5-5-5-5-5-5-------------------------------------------|

  put me on a food stamp and a hallmark card
G|----------------------------------------------------|
D|----------------------------------------------------|
A|----------------------------------------------------|
E|-2-2-2-2-2-2-2-2-5-5-5-5-5-5-5-5--------------------|

  tranquilize me with your ideal world
G|----------------------------------------------------------------|
D|----------------------------------------------------------------|
A|-5-5-5-5-3-3-3-3-2-2-2-2-0-0-0-0--------------------------------|
E|---------------------------------2-2-2-2-2-2-2-2-5-5-5-5-5-5-5-5|

G|---------------------------------------------------------------------------|
D|----------5-5-5-5-7-7-7-7-9-9-9-9---------5-5-5-5-7-7-7-7-9-9-9-9----------| 
A|--5-5-5-5-------------------------5-5-5-5----------------------------------|
E|---------------------------------------------------------------------------|

  I was taught what to believe,    now I'm only certain...  that no one is free
G|---------------------------------------------------------------------------|
D|---------5-5-5-5-7-7-7-7-9-9-9-9---------5-5-5-5-7-7-7-7----pause----------|
A|-5-5-5-5-------------------------5-5-5-5-----------------------------------|
E|---------------------------------------------------------------------------|

  tranquilize me with your ideal world
G|----------------------------------------------------------------|
D|----------------------------------------------------------------|
A|-5-5-5-5-3-3-3-3-2-2-2-2-0-0-0-0--------------------------------|
E|---------------------------------2-2-2-2-2-2-2-2-5-5-5-5-5-5-5-5|


G|---------------------------------------------------------------------------|
D|----------5-5-5-5-7-7-7-7-9-9-9-9---------5-5-5-5-7-7-7-7-9-9-9-9----------| 
A|--5-5-5-5-------------------------5-5-5-5-------------------------5-hold---|
E|---------------------------------------------------------------------------|            
Submit corrections


        Ideal World  lessons Hard to play? Try these video lessons and learn fast Ideal World  lessons
        
↑ Back to top | Tablatures and chords for acoustic guitar and electric guitar, ukulele, drums are parodies/interpretations of the original songs. You may use it for private study, scholarship, research or language learning purposes only