» » »

Girlpool - Jane Bass

Artists:  A B C D E F G H I J K L M N O P Q R S T U V W X Y Z # 

Jane Bass

(ver. 1) Click to play this song!
Girlpool
 Rating:
4.2/5 (22 votes)

 Jane  lessons Tabs too difficult? Try these video lessons and learn fast
 
                Tuning:EADG

0:00-0:40
G|-------------|
D|-------------|
A|-------------| x20
E|--5h7-7-7-7--|

0:41-0:56
G|---------------------------------------------------------------------------|
D|---------------------------------------------------------------------------|
A|--7-7-7-7-5-5-5-5-----------------7-7-7-7-5-5-5-5--------------------------|
E|------------------5-5-5-5-7-7-7-7-----------------5-5-5-5-7-7-7-7----------|

0:57-1:13
G|-------------|
D|-------------|
A|-------------| x8
E|--5h7-7-7-7--|

1:14-1:29
G|---------------------------------------------------------------------------|
D|---------------------------------------------------------------------------|
A|--7-7-7-7-5-5-5-5-----------------7-7-7-7-5-5-5-5--------------------------|
E|------------------5-5-5-5-7-7-7-7-----------------5-5-5-5-7-7-7-7----------|

1:30-1:45
G|-------------|
D|-------------|
A|-------------| x8
E|--5h7-7-7-7--|

1:46-2:06
G|---------------------------------------------------------------------------|
D|---------------------------------------------------------------------------|
A|--7-7-7-7-5-5-5-5-----------------7-7-7-7-5-5-5-5--------------------------|
E|------------------5-5-5-5-7-7-7-7-----------------5-5-5-5-7-7-7-7----------|            
Submit corrections


        Jane  lessons Hard to play? Try these video lessons and learn fast Jane  lessons
        
↑ Back to top | Tablatures and chords for acoustic guitar and electric guitar, ukulele, drums are parodies/interpretations of the original songs. You may use it for private study, scholarship, research or language learning purposes only