» » »

Foxboro Hot Tubs - The Pedestrian Tabs

Artists:  A B C D E F G H I J K L M N O P Q R S T U V W X Y Z # 

The Pedestrian Tabs

(ver. 2) Click to play this song!
Foxboro Hot Tubs
 Rating:
4/5 (5 votes)

 The Pedestrian lessons Tabs too difficult? Try these video lessons and learn fast
 
                Hello, this is Foxboro Hot Tubs new song "The Pedestrian"
I'm pretty sure this is 100%, except for the solo, which
I didn't really do. So any help with that would be much
appreciated. Thanks.
Foxboro Hot Tubs rule!

Intro/Verse:

e]-------------------------------------|
B]-------------------------------------|
G]---------------5-5-5-7-7-------------|
D]-5-5-5-5-5-5-5-5-5-5-7-7-------------|
A]-5-5-5-5-5-5-5-3-3-3-5-5-------------| [play this two times for intro, then
E]-3-3-3-3-3-3-3-----------------------|     three times for verse 1]

Verse 1, 2nd part:

e]-------------------------------------|
B]-------------------------------------|
G]---------------5-5-7-7-7-------------|
D]-2-2-2-2-2-2-2-5-5-7-7-7-------------|
A]-2-2-2-2-2-2-2-3-3-5-5-5-------------|
E]-0-0-0-0-0-0-0-----------------------|  [x1]

"well it's my time..."

[Repeat last two things]


Chorus


e]-------------------------------------|
B]-------------------------------------|
G]-7--7--7--7--------------------------|
D]-7--7--7--7--5--5--5--5--------------|
A]-5--5--5--5--5--5--5--5--------------|
E]-------------3--3--3--3--------------| [x2]

"pedestrian...is what i am"


e]--------------------------------|
B]--------------------------------|
G]-7--7--7--7----------5----------|
D]-7--7--7--7--5-5-5-5-5-5--------|
A]-5--5--5--5--5-5-5-5-3-5--------|
E]-------------3-3-3-3---3--------|

"an understated Samaritan"


e]-------------------------------------|
B]-------------------------------------|
G]-7--7--7--7--------------------------|
D]-7--7--7--7--5--5--5--5--------------|
A]-5--5--5--5--5--5--5--5--------------|
E]-------------3--3--3--3--------------| [x2]

"where i go... i go alone"

e]------------------------|
B]------------------------|
G]-77777777777-5----------|
D]-77777777777-5----------|
A]-55555555555-3----------|
E]------------------------|
"as long as i am taking my time"


[Verse 2, same as Verse 1]


Solo

This part I'm not going to try to tab, cause I know I'll butcher it.
There are some hammer-ons and pull-offs on the G string, so maybe
you can figure it out from there.
Any help on this would be appreciated. Thanks.


[insert Chorus here]
[insert Verse 3 here]


e]-------------------------------------|
B]-------------------------------------|
G]---------------5-5-7-7-7-------------|
D]-2-2-2-2-2-2-2-5-5-7-7-7-------------|
A]-2-2-2-2-2-2-2-3-3-5-5-5-------------|
E]-0-0-0-0-0-0-0-----------------------|

"well it's my time, and now it's time to go"
[repeat again, letting chords ring like so]

     Em~~~~~                      C~~~~                          D~~~~
well it's my time, and now it's time to go
            
Submit corrections


        The Pedestrian lessons Hard to play? Try these video lessons and learn fast The Pedestrian lessons
        
↑ Back to top | Tablatures and chords for acoustic guitar and electric guitar, ukulele, drums are parodies/interpretations of the original songs. You may use it for private study, scholarship, research or language learning purposes only