» » »

Foxboro Hot Tubs - The Pedestrian Tabs

Artists:  A B C D E F G H I J K L M N O P Q R S T U V W X Y Z # 

The Pedestrian Tabs

(ver. 1) Click to play this song!
Foxboro Hot Tubs
 Rating:
4/5 (11 votes)

 The Pedestrian lessons Tabs too difficult? Try these video lessons and learn fast
 
                -------------------------------------------------------------------------------
                             The Pedestrian - The Foxboro Hot Tubs
-------------------------------------------------------------------------------


Tuning: Standard

intro:
e|---------------------------------------|
B|---------------------------------------|
G|------------------5-5---7-7-7-7--------|
D|------5-5-5-5-5---5-5---7-7-7-7--------|
A|------5-5-5-5-5---3-3---5-5-5-5--------|
E|------3-3-3-3-3------------------------|

verse 1:
e|--------------------------------------------------------------------------|
B|--------------------------------------------------------------------------|
G|------------------5-5---7-7-7-7----------------------5-5-5-5-5------------|
D|------5-5-5-5-5---5-5---7-7-7-7----------2-2-2-2-2---5-5-5-5-5------------|
A|------5-5-5-5-5---3-3---5-5-5-5---(x2)---2-2-2-2-2---3-3-3-3-3------------|
E|------3-3-3-3-3--------------------------0-0-0-0-0------------------------|

e|---------------------------------------|
B|---------------------------------------|
G|------------------5-5---7-7-7-7--------|
D|------5-5-5-5-5---5-5---7-7-7-7--------|
A|------5-5-5-5-5---3-3---5-5-5-5--------|
E|------3-3-3-3-3------------------------|


verse 2:
e|--------------------------------------------------------------------------|
B|--------------------------------------------------------------------------|
G|------------------5-5---7-7-7-7----------------------5-5-5-5-5------------|
D|------5-5-5-5-5---5-5---7-7-7-7----------2-2-2-2-2---5-5-5-5-5------------|
A|------5-5-5-5-5---3-3---5-5-5-5---(x2)---2-2-2-2-2---3-3-3-3-3------------|
E|------3-3-3-3-3--------------------------0-0-0-0-0------------------------|

e|--------------------------------|
B|--------------------------------|
G|--------------------------------|
D|------5-5-5-5-5-5-5-5-5-5-5-----|
A|------5-5-5-5-5-5-5-5-5-5-5-----|
E|------3-3-3-3-3-3-3-3-3-3-3-----|

chorus:
e|--------------------------------------------------------------------------|
B|--------------------------------------------------------------------------|
G|----5--5--5-5-5-5-------------------5--5--5-5-5-5------------5------------|
D|----5--5--5-5-5-5---5--5--5-5-5-5---5--5--5-5-5-5---5-5-5-5--5-5----------|
A|----3--3--3-3-3-3---5--5--5-5-5-5---3--3--3-3-3-3---5-5-5-5--3-5----------|
E|--------------------3--3--3-3-3-3-------------------3-3-3-3----3----------|

e|--------------------------------------------------------------------------|
B|--------------------------------------------------------------------------|
G|----5--5--5-5-5-5-------------------5--5--5-5-5-5-------------------------|
D|----5--5--5-5-5-5---5--5--5-5-5-5---5--5--5-5-5-5-------------------------|
A|----3--3--3-3-3-3---5--5--5-5-5-5---3--3--3-3-3-3-------------------------|
E|--------------------3--3--3-3-3-3-----------------------------------------|

solo:
e|---------------------------------------------------------------------------|
B|-----------------------------------------------------------------12-12-12--|
G|--------------------------5----4----7-----------10------9-9-9-12-12--------|
D|-555555555----2----0--555---55---55-----10-10-10--10-10--------------------|
A|------------3---5----------------------------------------------------------|
E|---------------------------------------------------------------------------|

e|---------------------------------------------------------------------------|
B|-12-12-12---12-12-10-10--12------------------------------------------------|
G|------------12-12-12-12--12--------------------------5----4----7-----------|
D|-----------------------------555555555----2---0--555---55---55----10-10----|
A|----------------------------------------3---5------------------------------|
E|---------------------------------------------------------------------------|

e|---------------------------------------------------------------------------|
B|----------------------12-12-12-12-12-12---12--12--12--10---12--------------|
G|----10-------9-9-9-12---------------------12--12--12--12---12--------------|
D|-10---10-10-----------------------------------------------------\5---------|
A|---------------------------------------------------------------------------|
E|---------------------------------------------------------------------------|

end(last 3 lines):
e|---------------------------------------------------------------------------|
B|---------------------------------------------------------------------------|
G|----------------5-------------------5-5---7-7-7-7------------5-------------|
D|----2-2-2-2-2---5---5-5-5-5-5-5-5---5-5---7-7-7-7---------2--5--5----------|
A|----2-2-2-2-2---3---5-5-5-5-5-5-5---3-3---5-5-5-5---(x2)--2--3--5----------|
E|----0-0-0-0-0-------3-3-3-3-3-3-3-------------------------0-----3----------|


Order:
intro    (x2)
verse 1  (x1)
verse 2  (x1)
chorus   (x1)
verse 1  (x1)
solo     (x1)
chorus   (x1)
verse 1  (x1)
end      (x1)


lyrics:
(verse 1)
I don't need no reason to be a misfit
Whatever the reason, how far I'll go
When it's my time then I will let you know

(verse 2)
It don't take a genius to be an idiot
It don't take a jesus to save my soul
Well it's my time and it's my time to go

(chorus)
Pedestrian is what I am
An understated samaritan
Where I go, I go alone
As long as I am taking my time

(verse 3)
I don't know the answer
Be specific
I listened to reason, the reason is true
I take my time, well, now it's time to go

(solo)

(chorus)
(verse 3)

(end)
I take my time, well, now it's time to go
I take my time, well, now it's time to go


| b  bend
| /  slide up
| p  pull-off
| ~  vibrato
===============================================================================
            
Submit corrections


        The Pedestrian lessons Hard to play? Try these video lessons and learn fast The Pedestrian lessons
        
↑ Back to top | Tablatures and chords for acoustic guitar and electric guitar, ukulele, drums are parodies/interpretations of the original songs. You may use it for private study, scholarship, research or language learning purposes only