» » »

Foxboro Hot Tubs - Stop, Drop, And Roll Tabs

Artists:  A B C D E F G H I J K L M N O P Q R S T U V W X Y Z # 

Stop, Drop, And Roll Tabs

(ver. 3) Click to play this song!
Foxboro Hot Tubs
 Rating:
4/5 (4 votes)

 Stop, Drop, And Roll lessons Tabs too difficult? Try these video lessons and learn fast
 
                The Foxboro Hot Tubs (Green Day) - Stop Drop and Roll


You can play this just in the order it is, so just play from top to bottom.



Main Riff (x12)

e|----------------------|
B|77777-5---------------|
G|77777-5--5------------|
D|77777-5--5------------|
A|55555-3--3------------|
E|----------------------|


Verse (x4)

e|----------|
B|--------T-|
G|5-6-7---E-|
D|5-6-7---X-|
A|3-4-5---T-|
E|----------|

1.Sixteen and a son of a b**ch
2.Got a gun and a strychnine twist
3.Little girl on the graveyard shift
4.Out of control and doesn't give a sh*t

e|----------------------|
B|----------------------|
G|77777-5--5------------|
D|77777-5--5------------| x4
A|55555-3--3------------|
E|----------------------|

I don't wanna go down

 
Main Riff (x4)

e|----------------------|
B|77777-5---------------|
G|77777-5--5------------|
D|77777-5--5------------| 
A|55555-3--3------------|
E|----------------------|


Chorus (x2)

e|----------------------|
B|----------------------|
G|----------------------|
D|7-7-7-7-7-7-7-7-------|
A|7-7-7-7-7-7-7-7-------|
E|5-5-5-5-5-5-5-5-------|

1.So, baby-doll, don't you
2.You take it all cause it's 

e|----------------------|
B|----------------------|
G|3-3-3-3-3-3-3-3-------|
D|5-5-5-5-5-5-5-5-------|
A|5-5-5-5-5-5-5-5-------|
E|----------------------|

1.loose your touch
2.never gonna take too much


Verse (x4)

e|----------|
B|--------T-|
G|5-6-7---E-|
D|5-6-7---X-|
A|3-4-5---T-|
E|----------|

1.Dirty mouth and the look of death.
2.My tequila coming' from your breath.
3.Your lips are like a cherry bomb with teeth
4.Losing control, break my sanity.

e|----------------------|
B|----------------------|
G|77777-5--5------------|
D|77777-5--5------------| x4
A|55555-3--3------------|
E|----------------------|

I don't wanna go down


Main Riff (x4)

e|----------------------|
B|77777-5---------------|
G|77777-5--5------------|
D|77777-5--5------------| 
A|55555-3--3------------|
E|----------------------|


Chorus (x2)

e|----------------------|
B|----------------------|
G|----------------------|
D|7-7-7-7-7-7-7-7-------|
A|7-7-7-7-7-7-7-7-------|
E|5-5-5-5-5-5-5-5-------|

1.So, baby-doll, don't you
2.You take it all cause it's 

e|----------------------|
B|----------------------|
G|3-3-3-3-3-3-3-3-------|
D|5-5-5-5-5-5-5-5-------|
A|5-5-5-5-5-5-5-5-------|
E|----------------------|

1.loose your touch
2.never gonna take too much

Solo

e|-------------------------------------------------------|
B|-----12-----------------------------------------12br---|
G|/12b-12-1212b---/12b-12-12b12b---/12b-12b-1212b-12br---|
D|-------------------------------------------------------|
A|-------------------------------------------------------|
E|-------------------------------------------------------|

e|---------------------------------------------------------------|
B|1212v-1010v-1212v-1010v-1212v-1010v-1212v-1010v---12b(14)rv~---|
G|1212v-1010v-1212v-1010v-1212v-1010v-1212v-1010v-1212b(14)rv~---|
D|---------------------------------------------------------------|
A|---------------------------------------------------------------|
E|---------------------------------------------------------------|


e|----------------------|
B|----------------------|
G|77777-5--5------------|
D|77777-5--5------------| x4
A|55555-3--3------------|
E|----------------------|

I don't wanna go down

 
Main Riff (x4)

e|----------------------|
B|77777-5---------------|
G|77777-5--5------------|
D|77777-5--5------------| 
A|55555-3--3------------|
E|----------------------|


Chorus (x2)

e|----------------------|
B|----------------------|
G|----------------------|
D|7-7-7-7-7-7-7-7-------|
A|7-7-7-7-7-7-7-7-------|
E|5-5-5-5-5-5-5-5-------|

1.So, baby-doll, don't you
2.You take it all cause it's 

e|----------------------|
B|----------------------|
G|3-3-3-3-3-3-3-3-------|
D|5-5-5-5-5-5-5-5-------|
A|5-5-5-5-5-5-5-5-------|
E|----------------------|

1.loose your touch
2.never gonna take too much

Main Riff (x3)

e|----------------------|
B|77777-5---------------|
G|77777-5--5------------|
D|77777-5--5------------| 
A|55555-3--3------------|
E|----------------------|


End Riff (x1)

e|----------------------|
B|77777-----------------|
G|77777-5-6-7-----------|
D|77777-5-6-7-----------| 
A|55555-5-4-5-----------|
E|----------------------|
            
Submit corrections


        Stop, Drop, And Roll lessons Hard to play? Try these video lessons and learn fast Stop, Drop, And Roll lessons
        
↑ Back to top | Tablatures and chords for acoustic guitar and electric guitar, ukulele, drums are parodies/interpretations of the original songs. You may use it for private study, scholarship, research or language learning purposes only