» » »

Foxboro Hot Tubs - Stop, Drop, And Roll Tabs

Artists:  A B C D E F G H I J K L M N O P Q R S T U V W X Y Z # 

Stop, Drop, And Roll Tabs

(ver. 1) Click to play this song!
Foxboro Hot Tubs
 Rating:
4/5 (4 votes)

 Stop, Drop, And Roll lessons Tabs too difficult? Try these video lessons and learn fast
 
                -------------------------------------------------------------------------------
                             STOP DROP AND ROLL - Foxboro Hot Tubs
-------------------------------------------------------------------------------

Tuning: Standard (eBGDAE)

It's basically all power chords, except the solo. I've tabbed it into parts and
 then given the structure at the end.

Main Riff:
e|-----------------|
B|-----------------|
G|-7-7-7-7-7-5---5-|
D|-7-7-7-7-7-5---5-|
A|-5-5-5-5-5-3---3-|
E|-----------------|

Verse:
e|--------------------------------|
B|--------------------------------|
G|-7-------5-6-7---------77777777-|
D|-7-------5-6-7-  x3  --77777777-|
A|-5-------3-4-5---------55555555-|
E|--------------------------------|

Chorus:
e|------------------------|
B|------------------------|
G|-12-12-12-12-12-10---10-|
D|-12-12-12-12-12-10---10-| x4
A|-10-10-10-10-10-8----8--|
E|------------------------|

Bridge:
e|---------------------------|
B|---------------------------|
G|---------------------------|
D|-77777777-1010101010101010-| x2
A|-77777777-1010101010101010-|
E|-55555555-8-8-8-8-8-8-8-8--|

Order:
Main Riff x12
Verse
Chorus
Main Riff x4
Bridge
Main Riff x4
Verse
Chorus
Main Riff x4
Bridge
Solo (Main riff underneath x8)
Chorus
Main Riff x4
Bridge x2
Main Riff x4

The End

| /  slide up
| \  slide down
| h  hammer-on
| p  pull-off
| ~  vibrato
| +  harmonic
| x  Mute note
===============================================================================
            
Submit corrections


        Stop, Drop, And Roll lessons Hard to play? Try these video lessons and learn fast Stop, Drop, And Roll lessons
        
↑ Back to top | Tablatures and chords for acoustic guitar and electric guitar, ukulele, drums are parodies/interpretations of the original songs. You may use it for private study, scholarship, research or language learning purposes only