» » »

Foxboro Hot Tubs - Ruby Room Tabs

Artists:  A B C D E F G H I J K L M N O P Q R S T U V W X Y Z # 

Ruby Room Tabs

(ver. 3) Click to play this song!
Foxboro Hot Tubs
 Rating:
3.7/5 (6 votes)

 Ruby Room lessons Tabs too difficult? Try these video lessons and learn fast
 
                -------------------------------------------------------------------------------
                             RUBY ROOM- Foxboro Hot Tubs
-------------------------------------------------------------------------------

Tuning: Standard

Repeat as often as necessary

Intro/Outro Verse/Chorus                    Little Keyboard Riff

e|--|-------------------|-19-17-17-16--------------------------------------------|
B|--|-------------------|--------------------------------------------------------|
G|-4|-4-4-7-7-7-7-9-9-9-|--------------------------------------------------------|
D|-4|-4-4-7-7-7-7-9-9-9-|--------------------------------------------------------|
A|-2|-2-5-5-5-5-7-7-7-7-|--------------------------------------------------------|
E|--|---------5-5-------|--------------------------------------------------------|

Pre Chorus (listen to hear how many times you play each chord)

e|-------------------------------------------------------------------------------|
B|-------------------------------------------------------------------------------|
G|---4---------------------------------------------------------------------------|
D|-5-4---------------------------------------------------------------------------|
A|-5-2---------------------------------------------------------------------------|
E|-3-----------------------------------------------------------------------------|
            
Submit corrections


        Ruby Room lessons Hard to play? Try these video lessons and learn fast Ruby Room lessons
        
↑ Back to top | Tablatures and chords for acoustic guitar and electric guitar, ukulele, drums are parodies/interpretations of the original songs. You may use it for private study, scholarship, research or language learning purposes only