» » »

Foxboro Hot Tubs - Ruby Room Tabs

Artists:  A B C D E F G H I J K L M N O P Q R S T U V W X Y Z # 

Ruby Room Tabs

(ver. 1) Click to play this song!
Foxboro Hot Tubs
 Rating:
3.8/5 (5 votes)

 Ruby Room lessons Tabs too difficult? Try these video lessons and learn fast
 
                -------------------------------------------------------------------------------
-------------------------------------------------------------------------------

Tuning: Standard EADGBe

I've tabbed out the different parts, then put the structure at the end.

Intro:
e|-------------|
B|-------------|
G|-------------|
D|-------------| x a lot (not sure how many)
A|-2-----------|
E|-------------|

Verse/Chorus:
e|-------------------------|
B|-------------------------|
G|------7-7-------9-9-9-9--|
D|-9-9--7-7--7-7--9-9-9-9--| x8 for the Verse, x4 for the Chorus
A|-9-9--5-5--7-7--7-7-7-7--|
E|-7-7-------5-5-----------|

Synth Part over the main riff (Just in case you want to play it):
e|-----------------|
B|-12-10----10--9--|
G|-----------------|
D|-----------------|
A|-----------------|
E|-----------------|

Bridge:
e|-----------------------------|
B|-----------------------------|
G|-77777777-1111111111-----6-7-|
D|-77777777-1111111111-----6-7-|
A|-55555555-9-9-9-9-9------4-5-|
E|-----------------------------|

Synth Part over the Bridge:
e|----------------|
B|-3-------10-9-7-|
G|----------------|
D|----------------|
A|----------------|
E|----------------|

Solo (Rhythm plays the Main Riff 4 times):
Improvise with a lot of string bending on this scale:
e|---------------------7--|
B|-----------------7-9----|
G|-------------7-9--------|
D|---------7-9------------|
A|-----7-9----------------|
E|-7-9--------------------|

Different Synth Part over the last Chorus:
e|----------14-12-10--------|
B|-12-10-------------12-10--|
G|--------------------------|
D|--------------------------|
A|--------------------------|
E|--------------------------|

End:
e|----|
B|----|
G|----|
D|-9--| x a lot (like the beginning)
A|-9--|
E|-7--|

Structure:
Intro
Verse
Bridge
Chorus
Verse
Bridge
Chorus
Solo
Chorus (With different Synth Part)
End

The End.

| /  slide up
| \  slide down
| h  hammer-on
| p  pull-off
| ~  vibrato
| +  harmonic
| x  Mute note
===============================================================================
            
Submit corrections


        Ruby Room lessons Hard to play? Try these video lessons and learn fast Ruby Room lessons
        
↑ Back to top | Tablatures and chords for acoustic guitar and electric guitar, ukulele, drums are parodies/interpretations of the original songs. You may use it for private study, scholarship, research or language learning purposes only