» » »

Foxboro Hot Tubs - Mother Mary Tabs

Artists:  A B C D E F G H I J K L M N O P Q R S T U V W X Y Z # 

Mother Mary Tabs

(ver. 3) Click to play this song!
Foxboro Hot Tubs
 Rating:
4/5 (8 votes)

 Mother Mary lessons Tabs too difficult? Try these video lessons and learn fast
 
                --------------------------------------------------------------------------
                        Foxboro Hot Tubs-Mother Mary
--------------------------------------------------------------------------

tuning: standard

Intro (60's Rock Strumming Pattern):
   A       C#M     B        E
e|-----------------------------------|
B|-2-2-2-2-5-5-5-5----------9-9-9-9--|
G|-2-2-2-2-6-6-6-6-4-4-4-4--9-9-9-9--|
D|-2-2-2-2-6-6-6-6-4-4-4-4--9-9-9-9--|
A|-0-0-0-0-4-4-4-4-2-2-2-2--7-7-7-7--|
E|-----------------------------------|

Verse (same riff as intro)
   A       C#M     B        E
e|-----------------------------------|
B|-2-2-2-2-5-5-5-5----------9-9-9-9--|
G|-2-2-2-2-6-6-6-6-4-4-4-4--9-9-9-9--|
D|-2-2-2-2-6-6-6-6-4-4-4-4--9-9-9-9--|x4
A|-0-0-0-0-4-4-4-4-2-2-2-2--7-7-7-7--|
E|-----------------------------------|

(played under)
e|--------------------------------|
B|-2-------5-------3--------9-----|
G|-2-------6-------4--------9-----|
D|-2-------6-------4--------9-----|x4
A|-0-------4-------2--------7-----|
E|--------------------------------|

Chorus:
e|-------------------------------|-------------------------------|
B|-7-7-7-7--9-9-9-9--2-2-2-2-----|---7-7-7-7--9-9-9-9--5-5-2-2-2-|
G|-7-7-7-7--9-9-9-9--2-2-2-2-----|---7-7-7-7--9-9-9-9--6-6-2-2-2-|
D|-7-7-7-7--9-9-9-9--2-2-2-2-----|x2-7-7-7-7--9-9-9-9--6-6-2-2-2-|
A|-5-5-5-5--7-7-7-7--0-0-0-0-2-4-|---5-5-5-5--7-7-7-7--4-4-0-0-0-|
E|-------------------------------|-------------------------------|

e|---------------------------|
B|-7-7-7-7--9-9-9-9--2-2-2-2-|
G|-7-7-7-7--9-9-9-9--2-2-2-2-|
D|-7-7-7-7--9-9-9-9--2-2-2-2-|
A|-5-5-5-5--7-7-7-7--0-0-0-0-|
E|---------------------------|

Post Chorus
e|-------------------|
B|-2-2-2-2--2-2-2-2--|
G|-2-2-2-2--2-2-2-2--|
D|-2-2-2-2--2-2-2-2--|
A|-0-0-0-0--0-0-0-0--|
E|-------------------|
   ba ba ba (lol)

Repeat Verse
Repeat Chorus
Repeat Post Chorus

The guitar solo is played in B minor Pentatonic with the 
verse/intro riff playing under it.

Chorus:
e|-------------------------------|-------------------------------|
B|-7-7-7-7--9-9-9-9--2-2-2-2-----|---7-7-7-7--9-9-9-9--5-5-2-2-2-|
G|-7-7-7-7--9-9-9-9--2-2-2-2-----|---7-7-7-7--9-9-9-9--6-6-2-2-2-|
D|-7-7-7-7--9-9-9-9--2-2-2-2-----|x2-7-7-7-7--9-9-9-9--6-6-2-2-2-|
A|-5-5-5-5--7-7-7-7--0-0-0-0-2-4-|---5-5-5-5--7-7-7-7--4-4-0-0-0-|
E|-------------------------------|-------------------------------|

e|---------------------------|
B|-7-7-7-7--9-9-9-9--2-2-2-2-|
G|-7-7-7-7--9-9-9-9--2-2-2-2-|
D|-7-7-7-7--9-9-9-9--2-2-2-2-|
A|-5-5-5-5--7-7-7-7--0-0-0-0-|
E|---------------------------|

Outro (stop's abruptly)
e|-------------------|
B|-2-2-2-2--2-2-2-2--|
G|-2-2-2-2--2-2-2-2--|
D|-2-2-2-2--2-2-2-2--|
A|-0-0-0-0--0-0-0-0--|
E|-------------------|
   ba ba ba (lol)

This is pretty awesome song. It is really catchy.
            
Submit corrections


        Mother Mary lessons Hard to play? Try these video lessons and learn fast Mother Mary lessons
        
↑ Back to top | Tablatures and chords for acoustic guitar and electric guitar, ukulele, drums are parodies/interpretations of the original songs. You may use it for private study, scholarship, research or language learning purposes only