» » »

Foxboro Hot Tubs - Mother Mary Tabs

Artists:  A B C D E F G H I J K L M N O P Q R S T U V W X Y Z # 

Mother Mary Tabs

(ver. 1) Click to play this song!
Foxboro Hot Tubs
 Rating:
4.8/5 (24 votes)

 Mother Mary lessons Tabs too difficult? Try these video lessons and learn fast
 
                
This is my first tab so go easy on me..
Its a pretty easy/simple song so you'd probably learn it after the first try

Ive never written a tab so i dont know how to write the strumming pattern but i think i
it.. If not then please lemmi know [=

u = upstroke (there are alot obviously during the song but i only typed it for the 
guitar)
R = let ring

*********************************************************
**Play guitar 2 when guitar 1 plays a the similar chord**
*********************************************************

intro

Guitar1:
|------------------------------------------------|
|------------------------------------------------|
|-------------------------6-6-6--6-6--6--6-6-6-6-|
|-7-7-7--7-7--7--7-7-7-7--6-6-6--6-6--6--6-6-6-6-|
|-7-7-7--7-7--7--7-7-7-7--4-4-4--4-4--4--4-4-4-4-|
|-5-5-5--5-5--5--5-5-5-5-------------------------|

 ------------------------------------------------|
 ------------------------------------------------|
 -------------------------9-9-9--9-9--9--9-9-9-9-|
 -9-9-9--9-9--9--9-9-9-9--9-9-9--9-9--9--9-9-9-9-|
 -9-9-9--9-9--9--9-9-9-9--7-7-7--7-7--7--7-7-7-7-|
 -7-7-7--7-7--7--7-7-7-7-------------------------|

Guitar2:

|------------|
|------------|
|----6-----9-|
|-7--6--9--9-| (let each chord ring)
|-7--4--9--7-|
|-5-----7----|

verse

Guitar1:
|------------------------------------------------|
|------------------------------------------------|
|-------------------------6-6-6--6-6--6--6-6-6-6-|
|-7-7-7--7-7--7--7-7-7-7--6-6-6--6-6--6--6-6-6-6-|
|-7-7-7--7-7--7--7-7-7-7--4-4-4--4-4--4--4-4-4-4-|
|-5-5-5--5-5--5--5-5-5-5-------------------------|

 ------------------------------------------------|
 ------------------------------------------------|
 -------------------------9-9-9--9-9--9--9-9-9-9-|
 -9-9-9--9-9--9--9-9-9-9--9-9-9--9-9--9--9-9-9-9-|
 -9-9-9--9-9--9--9-9-9-9--7-7-7--7-7--7--7-7-7-7-|
 -7-7-7--7-7--7--7-7-7-7-------------------------|

Guitar2:

|------------|
|------------|
|----6-----9-|
|-7--6--9--9-| (let each chord ring)
|-7--4--9--7-|
|-5-----7----|

chorus

|-------------------------------------------------|
|-------------------------------------------------|
|-7-7-7--9-9--9--9-9-9-9--------------------------|
|-7-7-7--9-9--9--9-9-9-9--7-7-7--7-7--7--7-7-7-7--|
|-5-5-5--7-7--7--7-7-7-7--7-7-7--7-7--7--7-7-7-7--|
|-------------------------5-5-5--5-5--5--5-5-5-5--| (x2)

|-------------------------------------------------|
|-------------------------------------------------|
|-7-7-7--9-9--9--9-9-9-9--------------------------|
|-7-7-7--9-9--9--9-9-9-9--7-7-7--4-4--4--4-4-4-4--|
|-5-5-5--7-7--7--7-7-7-7--7-7-7--4-4--4--4-4-4-4--|
|-------------------------5-5-5--2-2--2--2-2-2-2--|

|------------------------------------------------------------|
|------------------------------------------------------------|
|-7-7-7--9-9--9--9-9-9-9-------------------------------------|
|-7-7-7--9-9--9--9-9-9-9--7-7-7--7-7--7--7-7-7-7--|    |-7---|
|-5-5-5--7-7--7--7-7-7-7--7-7-7--7-7--7--7-7-7-7--|    |-7---|
|-------------------------5-5-5--5-5--5--5-5-5-5--| <- |-5---|(x2)

Guitar2:

|---------|
|---------|
|-7--9----|
|-7--9--7-| (let each chord ring)
|-5--7--7-|
|-------5-|

verse
Guitar1:

|------------------------------------------------|
|------------------------------------------------|
|-------------------------6-6-6--6-6--6--6-6-6-6-|
|-7-7-7--7-7--7--7-7-7-7--6-6-6--6-6--6--6-6-6-6-|
|-7-7-7--7-7--7--7-7-7-7--4-4-4--4-4--4--4-4-4-4-|
|-5-5-5--5-5--5--5-5-5-5-------------------------|

 ------------------------------------------------|
 ------------------------------------------------|
 -------------------------9-9-9--9-9--9--9-9-9-9-|
 -9-9-9--9-9--9--9-9-9-9--9-9-9--9-9--9--9-9-9-9-|
 -9-9-9--9-9--9--9-9-9-9--7-7-7--7-7--7--7-7-7-7-|
 -7-7-7--7-7--7--7-7-7-7-------------------------|

Guitar2:

|------------| |-5R--4R-------|     |------------------------------------|
|------------| |-------7R--5R-|     |------------------------------------|
|----6-----9-| |--------------|     |----------6R--6-6u-----------9R-9-9u|
|-7--6--9--9-| |--------------|     |-7R--7-7u-6R--6-6u-9R--9-9u--9R-9-9u|
|-7--4--9--7-| |--------------|     |-7R--7-5u-4R--4-4u-9R--9-9u--7R-7-7u|
|-5-----7----| |--------------| 12/ |-5R--5-5u----------7R--7-7u---------|

|------------------------------------------|
|------------------------------------------|
|----------------------X-6-X-6-X-6-X-6-6-6-|
|-X-7-X-7-X-7-X-7-7-7--X-6-X-6-X-6-X-6-6-6-|
|-X-7-X-7-X-7-X-7-7-7--X-4-X-4-X-4-X-4-4-4-|
|-X-5-X-5-X-5-X-5-5-5----------------------|

 ---------------------------------------------|
 ---------------------------------------------|
 ----------------------9-9-9--9-9--9--9-9-9-9-|
 -X-9-X-9-X-9-X-9-9-9--9-9-9--9-9--9--9-9-9-9-|
 -X-9-X-9-X-9-X-9-9-9--7-7-7--7-7--7--7-7-7-7-|
 -X-7-X-7-X-7-X-7-7-7-------------------------|

chorus

|-------------------------------------------------|
|-------------------------------------------------|
|-7-7-7--9-9--9--9-9-9-9--------------------------|
|-7-7-7--9-9--9--9-9-9-9--7-7-7--7-7--7--7-7-7-7--|
|-5-5-5--7-7--7--7-7-7-7--7-7-7--7-7--7--7-7-7-7--|
|-------------------------5-5-5--5-5--5--5-5-5-5--| (x2)

|-------------------------------------------------|
|-------------------------------------------------|
|-7-7-7--9-9--9--9-9-9-9--------------------------|
|-7-7-7--9-9--9--9-9-9-9--7-7-7--4-4--4--4-4-4-4--|
|-5-5-5--7-7--7--7-7-7-7--7-7-7--4-4--4--4-4-4-4--|
|-------------------------5-5-5--2-2--2--2-2-2-2--|

|------------------------------------------------------------|
|------------------------------------------------------------|
|-7-7-7--9-9--9--9-9-9-9-------------------------------------|
|-7-7-7--9-9--9--9-9-9-9--7-7-7--7-7--7--7-7-7-7--|    |-7---|
|-5-5-5--7-7--7--7-7-7-7--7-7-7--7-7--7--7-7-7-7--|    |-7---|
|-------------------------5-5-5--5-5--5--5-5-5-5--| <- |-5---|(x2)

solo

Guitar 1:

i dont know the whole thing just different parts not in order so i dont wanna post up 
wrong
if any of you figure out the solo plz lemmi know =]

Guitar 2:

|------------------------------------------------|
|------------------------------------------------|
|-------------------------6-6-6--6-6--6--6-6-6-6-|
|-7-7-7--7-7--7--7-7-7-7--6-6-6--6-6--6--6-6-6-6-|
|-7-7-7--7-7--7--7-7-7-7--4-4-4--4-4--4--4-4-4-4-|
|-5-5-5--5-5--5--5-5-5-5-------------------------|

 ------------------------------------------------|
 ------------------------------------------------|
 -------------------------9-9-9--9-9--9--9-9-9-9-|
 -9-9-9--9-9--9--9-9-9-9--9-9-9--9-9--9--9-9-9-9-|
 -9-9-9--9-9--9--9-9-9-9--7-7-7--7-7--7--7-7-7-7-|
 -7-7-7--7-7--7--7-7-7-7-------------------------|

chorus

|-------------------------------------------------|
|-------------------------------------------------|
|-7-7-7--9-9--9--9-9-9-9--------------------------|
|-7-7-7--9-9--9--9-9-9-9--7-7-7--7-7--7--7-7-7-7--|
|-5-5-5--7-7--7--7-7-7-7--7-7-7--7-7--7--7-7-7-7--|
|-------------------------5-5-5--5-5--5--5-5-5-5--| (x2)

|-------------------------------------------------|
|-------------------------------------------------|
|-7-7-7--9-9--9--9-9-9-9--------------------------|
|-7-7-7--9-9--9--9-9-9-9--7-7-7--4-4--4--4-4-4-4--|
|-5-5-5--7-7--7--7-7-7-7--7-7-7--4-4--4--4-4-4-4--|
|-------------------------5-5-5--2-2--2--2-2-2-2--|

|------------------------------------------------------------|
|------------------------------------------------------------|
|-7-7-7--9-9--9--9-9-9-9-------------------------------------|
|-7-7-7--9-9--9--9-9-9-9--7-7-7--7-7--7--7-7-7-7--|    |-7---|
|-5-5-5--7-7--7--7-7-7-7--7-7-7--7-7--7--7-7-7-7--|    |-7---|
|-------------------------5-5-5--5-5--5--5-5-5-5--| <- |-5---|(x3)

|---------------|
|---------------|
|---------------|
|-7-7-7--7-7----|
|-7-7-7--7-7----|
|-5-5-5--5-5----|

awesome song and darn easy to play! enjoy!

punkpsycho
            
Submit corrections


        Mother Mary lessons Hard to play? Try these video lessons and learn fast Mother Mary lessons
        
↑ Back to top | Tablatures and chords for acoustic guitar and electric guitar, ukulele, drums are parodies/interpretations of the original songs. You may use it for private study, scholarship, research or language learning purposes only