Home » F » Fokofpolisiekar »

Fokofpolisiekar - Hemel Op Die Platteland Bass

Artists:  A B C D E F G H I J K L M N O P Q R S T U V W X Y Z # 

Hemel Op Die Platteland Bass

(ver. 2) Click to play this song!
Fokofpolisiekar
----------------------------------------------------------------------------
                   hemel op die platteland - fokofpolisiekar
----------------------------------------------------------------------------

Tuning: standard


G|---------------------------------------------------------|
D|---------------------------------------------------------|
A|-----------------------3---------------------------------|
E|------55-----55----10/1-3~-------------------------------|

G|---------------------------------------------------------|
D|---------------------------------------------------------|
A|-----------------------------------------------3---------|
E|-3/555555555555-3/555555555555-3/555555555555/1-3~-------|

G|---------------------------------------------------------|
D|---------------------------------------------------------|
A|---------------------------------------------------------|
E|-10/555555555555555578888888833333333--------------------|

G|---------------------------------------------------------|
D|---------------------------------------------------------|
A|---------------------------------------------------------|
E|-555555555555555578888888833333333/10--------------------|

G|---------------------------------------------------------|
D|---------------------------------------------------------|
A|---------------------------------------------------------|
E|-5~------78~----/33-----10/5------78~----/3x3x3x---------|

G|---------------------------------------------------------|
D|---------------------------------------------------------|
A|---------------------------------------------------------|
E|-888888888888888831111111133333333-----------------------|

G|---------------------------------------------------------|
D|---------------------------------------------------------|
A|---------------------------------------------------------|
E|-555555555555555578888888833333333-----------------------|

G|---------------------------------------------------------|
D|---------------------------------------------------------|
A|---------------------------------------------------------|
E|-888888888888888831111111133333333-----------------------|

G|---------------------------------------------------------|
D|---------------------------------------------------------|
A|---------------------------------------------------------|
E|-78888888878888888831111111555555533333333---------------|

G|---------------------------------------------------------|
D|---------------------------------------------------------|
A|---------------------------------------------------------|
E|-788888888788888888311111111111111111333333333/10\-------|

G|---------------------------------------------------------|
D|---------------------------------------------------------|    x2
A|---------------------------------------------------------|
E|-555555555555555578888888833333333-----------------------|

G|-----------------------------------------------------------|
D|-----------------------------------------------------------|
A|-----------------------------------------------------------|
E|-55555-5-5555788888\3-333333--555555-5-5555788888\33-3-10\-|

G|-----------------------------------------------------------|
D|-----------------------------------------------------------|
A|-----------------------------------------------------------|
E|-5555555555555555788888888833333333------------------------|

G|-----------------------------------------------------------|
D|-----------------------------------------------------------|
A|-----------------------------------------------------------|
E|-555555555555555578x8x8x33333333---------------------------|

G|-----------------------------------------------------------|
D|-----------------------------------------------------------|
A|-----------------------------------------------------------|  x3
E|-55555555555555557888888883333333--------------------------|

G|-----------------------------------------------------------|
D|-----------------------------------------------------------|
A|-----------------------------------------------------------|
E|-55-----88---33-33---55-----888888883333333355~------------|
            
Submit corrections

↑ Back to top | Tablatures and chords for acoustic guitar and electric guitar, ukulele, drums are parodies/interpretations of the original songs. You may use it for private study, scholarship, research or language learning purposes only