Home » F » Fokofpolisiekar »

Fokofpolisiekar - Hemel Op Die Platteland Bass

Artists:  A B C D E F G H I J K L M N O P Q R S T U V W X Y Z # 

Hemel Op Die Platteland Bass

(ver. 1) Click to play this song!
Fokofpolisiekar
-----------------------------------------------------------|
                 Hemel op die platteland- Fokofpolisiekar -|

idea of whats going on.
Please rate this tab for me.
If there is any mistakes then contact me at my email.
Tuning:Standard Tunning
 Intro x2
G|---------------------------------------------------------------------------------------|
D|---------------------------------------------------------------------------------------|
A|-----------------------3~--------------------------------------------------------------|
E|5-5----5-5----5-5---1~----3~-----------------------------------------------------------|
 Intro x2(Part 2,when the lead guitar comes in.)
G|-------------------------------------|
D|-------------------------------------|
A|-----------------33333333------------|
E|55555555555555557----------33333333--|
 Verse,once the vocals come in.
G|-------------------------------------------------------------------------------------|
D|-------------------------------------------------------------------------------------|
A|--3~------------3~-------------------------------------------------------------------|
E|5~---X-X-X----5~---3~----------------------------------------------------------------|
 Then
G|------------------------------------|
D|------------------------------------|
A|3333333333333333--------------------|
E|-----------------31111111133333333--|

G|------------------------------------|
D|------------------------------------|
A|----------------33333333------------|
E|5555555555555557----------33333333--|
 Do This Part x3
G|------------------------------------|
D|------------------------------------|
A|3333333333333333--------------------|
E|-----------------31111111133333333--|
 Solo x2
G|-------------------------------------|
D|-------------------------------------|
A|-----------------33333333------------|
E|55555555555555557----------33333333--|
 Bridge x2
G|---------------------------------------------------------------------------------------|
D|---------------------------------------------------------------------------------------|
A|------------3333-----------------------------------------------------------------------|
E|5555--55-57-------33-3-----------------------------------------------------------------|
 Do this x2
G|-------------------------------------|
D|-------------------------------------|
A|-----------------33333333------------|
E|55555555555555557----------33333333--|
 Chorus x3
G|-------------------------------------|
D|-------------------------------------|
A|-----------------33333333------------|
E|55555555555555557----------33333333--|
 Outro
G|----------------------------------|
D|----------------------------------|
A|----33-------------33-------------|
E|55-----33-33---55-----33-33--55~--|


| /  slide up
| \  slide down
| h  hammer-on
| p  pull-off
| ~  vibrato
| +  harmonic
| x  Mute note
===============================================================================
            
Submit corrections

↑ Back to top | Tablatures and chords for acoustic guitar and electric guitar, ukulele, drums are parodies/interpretations of the original songs. You may use it for private study, scholarship, research or language learning purposes only