» » »

Foals - White Onions Tabs

Artists:  A B C D E F G H I J K L M N O P Q R S T U V W X Y Z # 

White Onions Tabs

(ver. 1) Click to play this song!
Foals
 Rating:
4.3/5 (10 votes)

 White Onions lessons Tabs too difficult? Try these video lessons and learn fast
 
                [Intro]

(LOOPS THROUGHOUT FROM 0:06) LEAD
e|-----15-13----------13--------|
B|--15----------13-15----15-----|
G|-----------14-------------14--|
D|------------------------------|
A|------------------------------|
D|------------------------------|

(0:30)
e|-----------------------------------------------------|
B|-----------------------------------------------------|
G|-----------------------------------------------------|
D|--5--5--5--0-0-0-0-0-0--3-3-3-3-3-3--5-5-5-3-5-/-7---|
A|--5--5--5--0-0-0-0-0-0--3-3-3-3-3-3--5-5-5-3-5-/-7---|
D|--5--5--5--0-0-0-0-0-0--3-3-3-3-3-3--5-5-5-3-5-/-7---|
    D  D  D  D D U U D U  D D U U D U  D D U U D

(0:36)
e|------------------------------------------------------------|
B|------------------------------------------------------------|
G|------------------------------------------------------------|
D|--5--5--5--0-0-0-0-0-/-10-10-10-10-10-\-9-9-10-12-10-9-\-7--|
A|--5--5--5--0-0-0-0-0-/-10-10-10-10-10-\-9-9-10-12-10-9-\-7--|
D|--5--5--5--0-0-0-0-0-/-10-10-10-10-10-\-9-9-10-12-10-9-\-7--|
    D  D  D  D D U U D   D  D  U  U  D    D D D  D  D  D

(0:41)
e|------------------------------------------------------|
B|------------------------------------------------------|
G|------------------------------------------------------|
D|--5--5--5--0-0-0-0-0-0--3-3-3-3-3-3--5-5-5-3-3-5-/-7--|
A|--5--5--5--0-0-0-0-0-0--3-3-3-3-3-3--5-5-5-3-3-5-/-7--|
D|--5--5--5--0-0-0-0-0-0--3-3-3-3-3-3--5-5-5-3-3-5-/-7--|
    D  D  D  D D U U D U  D D U U D U  D D U D U D

(0:41) LEAD
e|--20-17-------------------17--|
B|-----------17-18-20-18/20-----|
G|--------19--------------------|
D|------------------------------|
A|------------------------------|
D|------------------------------|

(0:47)
e|----------------------------------------------------|
B|----------------------------------------------------|
G|----------------------------------------------------|
D|--5--5--5--0-0-0-0-0-0--7-7-7-7-7-7--3-3-3-5-5-3-5--|
A|--5--5--5--0-0-0-0-0-0--7-7-7-7-7-7--3-3-3-5-5-3-5--|
D|--5--5--5--0-0-0-0-0-0--7-7-7-7-7-7--3-3-3-5-5-3-5--|
    D  D  D  D D U U D U  D D U U D U  D D U D U D U

[VERSE 1] (loop continues)

(0:58)
I see a lair, I see a lair, I see a lair, Whoa
e|-----------|
B|-----------|
G|-----------|
D|--17-17\5--|
A|--17-17\5--|
D|--17-17\5--|
    D  U  D

(1:03)
I fight for air, I fight for air, I fight for air, Whoa
e|--22b--|
B|--22b--|
G|-------|
D|-------|
A|-------|
D|-------|

(1:07)
I see a lair, I see a lair, I see a lair, Whoa
e|------|
B|------|
G|------|
D|--7~--|
A|------|
D|------|

(1:10)
You keep me there, you keep me there, you keep me there, Whoa

[Chorus 1]

(1:16)
WHOA!
e|---------------------------------------------------------|
B|---------------------------------------------------------|
G|---------------------------------------------------------|
D|-------5--5--5--0-0-0-0-0-0--3-3-3-3-3-3--5-5-5-3-5-/-7--|
A|-------5--5--5--0-0-0-0-0-0--3-3-3-3-3-3--5-5-5-3-5-/-7--|
D|--3p0--5--5--5--0-0-0-0-0-0--3-3-3-3-3-3--5-5-5-3-5-/-7--|
         D  D  D  D D U U D U  D D U U D U  D D U U D

(1:16) LEAD
e|--20-17-------------------17--|
B|-----------17-18-20-18/20-----|
G|--------19--------------------|
D|------------------------------|
A|------------------------------|
D|------------------------------|

(1:22)
WHOA!
e|------------------------------------------------------------|
B|------------------------------------------------------------|
G|------------------------------------------------------------|
D|--5--5--5--0-0-0-0-0-/-10-10-10-10-10-\-9-9-10-12-10-9-\-7--|
A|--5--5--5--0-0-0-0-0-/-10-10-10-10-10-\-9-9-10-12-10-9-\-7--|
D|--5--5--5--0-0-0-0-0-/-10-10-10-10-10-\-9-9-10-12-10-9-\-7--|
    D  D  D  D D U U D   D  D  U  U  D    D D D  D  D  D

(1:28)
WHOA!
e|------------------------------------------------------|
B|------------------------------------------------------|
G|------------------------------------------------------|
D|--5--5--5--0-0-0-0-0-0--3-3-3-3-3-3--5-5-5-3-3-5-/-7--|
A|--5--5--5--0-0-0-0-0-0--3-3-3-3-3-3--5-5-5-3-3-5-/-7--|
D|--5--5--5--0-0-0-0-0-0--3-3-3-3-3-3--5-5-5-3-3-5-/-7--|
    D  D  D  D D U U D U  D D U U D U  D D U D U D

(1:34)
WHOA!
e|------------------------------------------------------------|
B|------------------------------------------------------------|
G|------------------------------------------------------------|
D|--5--5--5--0-0-0-0-0-/-10-10-10-10-10-\-9-9-10-12-10-9-\-7--|
A|--5--5--5--0-0-0-0-0-/-10-10-10-10-10-\-9-9-10-12-10-9-\-7--|
D|--5--5--5--0-0-0-0-0-/-10-10-10-10-10-\-9-9-10-12-10-9-\-7--|
    D  D  D  D D U U D   D  D  U  U  D    D D D  D  D  D

[Bridge]

(1:39) (bass part)
It's getting late now, my head goes ka-boom
e|--------------------------------------------------------------|
B|--------------------------------------------------------------|
G|--------------------------------------------------------------|
D|--------------------------------------------------------------|
A|--------------------------------------------------------------|
D|--5--5--5--0-0-0-0-0-0-0-0--3-3-3-3-3-3-3-3--5-5-5-5-3-3-5-5--|

(1:45) (bass part)
No escape from this room and I'll wait for a wave
e|--------------------------------------------------------------|
B|--------------------------------------------------------------|
G|--------------------------------------------------------------|
D|--------------------------------------------------------------|
A|--------------------------------------------------------------|
D|--5--5--5--0-0-0-0-0-0-0-0--3-3-3-3-3-3-3-3--7-7-7-7-7-7-7-7--|

(1:51) (bass part)
To come wash away, lead me out of this place
e|--------------------------------------------------------------|
B|--------------------------------------------------------------|
G|--------------------------------------------------------------|
D|--------------------------------------------------------------|
A|--------------------------------------------------------------|
D|--5--5--5--0-0-0-0-0-0-0-0--3-3-3-3-3-3-3-3--5-5-5-5-3-3-5-5--|

(1:57) (bass part)
I fight for air, don't keep me there
Don't keep me there, I fight for air
e|--------------------------------------------------------------|
B|--------------------------------------------------------------|
G|--------------------------------------------------------------|
D|--------------------------------------------------------------|
A|--------------------------------------------------------------|
D|--5--5--5--0-0-0-0-0-0-0-0--3-3-3-3-3-3-3-3--2-2-2-2-2-2-2-2--|


(1:39 - 2:02) SOLO (LOOP CUTS OUT)
e|-------------------------------------------------------|
B|--15------13-15------13-15------13--13p12-13p12-13p12--|
G|-------14---------14---------14------------------------|
D|-------------------------------------------------------|
A|-------------------------------------------------------|
D|-------------------------------------------------------|

e|-------------------------------------------------------------|
B|--12/15-15--18-13/15-15-18-13/15-15-18-13-13p12-13p12-13p12--|
G|-------------------------------------------------------------|
D|-------------------------------------------------------------|
A|-------------------------------------------------------------|
D|-------------------------------------------------------------|

e|--------------17-----------------------------------------------------|
B|--13/18-18/20-------18-18-20----18-18-20-----------------------------|
G|-----------------19----------19----------19-19\17-16h17-16h17-17/19--|
D|---------------------------------------------------------------------|
A|---------------------------------------------------------------------|
D|---------------------------------------------------------------------|

e|---------------------------------------------------|
B|--------18----------18----------18----------18-----|
G|--19-19----17-19-19----17-19-19----17-19-19----17--|
D|---------------------------------------------------|
A|---------------------------------------------------|
D|---------------------------------------------------|

[Chorus 2]

(2:02 - 2:26) LEAD (LOOP COMES BACK)

e|--20-17-------------------17--|
B|-----------17-18-20-18/20-----|
G|--------19--------------------|
D|------------------------------|
A|------------------------------|
D|------------------------------|

(2:02)
I see a maze, I see a maze, I see a maze, Whoa
e|----------------------------------------------------|
B|----------------------------------------------------|
G|----------------------------------------------------|
D|--5--5--5--0-0-0-0-0-0--3-3-3-3-3-3--5-5-5-3-5-/-7--|
A|--5--5--5--0-0-0-0-0-0--3-3-3-3-3-3--5-5-5-3-5-/-7--|
D|--5--5--5--0-0-0-0-0-0--3-3-3-3-3-3--5-5-5-3-5-/-7--|
    D  D  D  D D U U D U  D D U U D U  D D U U D

(2:09)
I break the cage, I break the cage, I break the cage, Whoa
e|------------------------------------------------------------|
B|------------------------------------------------------------|
G|------------------------------------------------------------|
D|--5--5--5--0-0-0-0-0-/-10-10-10-10-10-\-9-9-10-12-10-9-\-7--|
A|--5--5--5--0-0-0-0-0-/-10-10-10-10-10-\-9-9-10-12-10-9-\-7--|
D|--5--5--5--0-0-0-0-0-/-10-10-10-10-10-\-9-9-10-12-10-9-\-7--|
    D  D  D  D D U U D   D  D  U  U  D    D D D  D  D  D

(2:15)
I'm in a maze, I'm in a maze, I'm in a maze, Whoa
e|------------------------------------------------------|
B|------------------------------------------------------|
G|------------------------------------------------------|
D|--5--5--5--0-0-0-0-0-0--3-3-3-3-3-3--5-5-5-3-3-5-/-7--|
A|--5--5--5--0-0-0-0-0-0--3-3-3-3-3-3--5-5-5-3-3-5-/-7--|
D|--5--5--5--0-0-0-0-0-0--3-3-3-3-3-3--5-5-5-3-3-5-/-7--|
    D  D  D  D D U U D U  D D U U D U  D D U D U D

(2:20)
I break the cage, I break the cage, I break the cage, Whoa
e|------------------------------------------------------------|
B|------------------------------------------------------------|
G|------------------------------------------------------------|
D|--5--5--5--0-0-0-0-0-/-10-10-10-10-10-\-9-9-10-12-10-9-\-7--|
A|--5--5--5--0-0-0-0-0-/-10-10-10-10-10-\-9-9-10-12-10-9-\-7--|
D|--5--5--5--0-0-0-0-0-/-10-10-10-10-10-\-9-9-10-12-10-9-\-7--|
    D  D  D  D D U U D   D  D  U  U  D    D D D  D  D  D

[INTERLUDE] (only drums and loop continue)

(2:26) (LOOP TAKES PRECEDENCE) LEAD
e|-----15-13----------13--------|
B|--15----------13-15----15-----|
G|-----------14-------------14--|
D|------------------------------|
A|------------------------------|
D|------------------------------|

(2:26) ACCENTUATES DRUMBEATS
e|---------------------------|
B|---------------------------|
G|---------------------------|
D|---------------------------|
A|---------------------------|
D|--12-12-12-12-12-12-12-12--|

(instruments return)

[Chorus 3]

(2:38 UNTIL END) LEAD
e|--20-17-------------------17--|
B|-----------17-18-20-18\20-----|
G|--------19--------------------|
D|------------------------------|
A|------------------------------|
D|------------------------------|

(2:38)
I see a lair, I see a lair, I see a lair, Whoa
e|-----------------------------------------------------|
B|-----------------------------------------------------|
G|-----------------------------------------------------|
D|--5--5--5--0-0-0-0-0-0--3-3-3-3-3-3--5-5-5-3-5-/-7---|
A|--5--5--5--0-0-0-0-0-0--3-3-3-3-3-3--5-5-5-3-5-/-7---|
D|--5--5--5--0-0-0-0-0-0--3-3-3-3-3-3--5-5-5-3-5-/-7---|
    D  D  D  D D U U D U  D D U U D U  D D U U D

(2:44)
I fight for air, I fight for air, I fight for air, Whoa
e|------------------------------------------------------------|
B|------------------------------------------------------------|
G|------------------------------------------------------------|
D|--5--5--5--0-0-0-0-0-/-10-10-10-10-10-\-9-9-10-12-10-9-\-7--|
A|--5--5--5--0-0-0-0-0-/-10-10-10-10-10-\-9-9-10-12-10-9-\-7--|
D|--5--5--5--0-0-0-0-0-/-10-10-10-10-10-\-9-9-10-12-10-9-\-7--|
    D  D  D  D D U U D   D  D  U  U  D    D D D  D  D  D

(2:49)
I see a lair, I see a lair, I see a lair, Whoa
e|------------------------------------------------------|
B|------------------------------------------------------|
G|------------------------------------------------------|
D|--5--5--5--0-0-0-0-0-0--3-3-3-3-3-3--5-5-5-3-3-5-/-7--|
A|--5--5--5--0-0-0-0-0-0--3-3-3-3-3-3--5-5-5-3-3-5-/-7--|
D|--5--5--5--0-0-0-0-0-0--3-3-3-3-3-3--5-5-5-3-3-5-/-7--|
    D  D  D  D D U U D U  D D U U D U  D D U D U D

(2:55)
I see you there, I see you there, I see you there, Whoa
e|------------------------------------------------------------|
B|------------------------------------------------------------|
G|------------------------------------------------------------|
D|--5--5--5--0-0-0-0-0-/-10-10-10-10-10-\-9-9-10-12-10-9-\-7--|
A|--5--5--5--0-0-0-0-0-/-10-10-10-10-10-\-9-9-10-12-10-9-\-7--|
D|--5--5--5--0-0-0-0-0-/-10-10-10-10-10-\-9-9-10-12-10-9-\-7--|
    D  D  D  D D U U D   D  D  U  U  D    D D D  D  D  D            
Submit corrections


        White Onions lessons Hard to play? Try these video lessons and learn fast White Onions lessons
        
↑ Back to top | Tablatures and chords for acoustic guitar and electric guitar, ukulele, drums are parodies/interpretations of the original songs. You may use it for private study, scholarship, research or language learning purposes only