Home » F » Foals »

Foals - Wash Off Tabs

Artists:  A B C D E F G H I J K L M N O P Q R S T U V W X Y Z # 

Wash Off Tabs

(ver. 1) Click to play this song!
Foals
[Intro]

Guitar 1

e|---------------------------------------------------------------------------|
B|-------------------11-11p10---------------------------11-11p10-------------|
G|-------10-10-12-12----------12p10---------10-10-12-12----------12p10-------|
D|-12-12-----------------------------12-12-----------------------------------|
A|---------------------------------------------------------------------------|
E|---------------------------------------------------------------------------|

Guitar 2

e|---------------------------------------------------------------------------|
B|---------------------------------------------------------------------------|
G|---------------------------------------------------------------------------|
D|-------------------8--8p7-----------------------------8---8p7--------------|
A|-------8--8--10-10----------10-----------8--8--10-10----------10-----------|
E|-10-10-----------------------------10-10-----------------------------------|

Guitar 1

e|---------------------------------------------------------------------------|
B|-------------------11-11p10---------------------------/13-13-11------------|
G|-------10-10-12-12----------12p10---------10-10-12-12----------------------|
D|-12-12------------------------------12-12----------------------------------|
A|---------------------------------------------------------------------------|
E|---------------------------------------------------------------------------|

Guitar 2

e|---------------------------------------------------------------------------|
B|---------------------------------------------------------------------------|
G|---------------------------------------------------------------------------|
D|-------------------8--8p7-----------------------------10--10-8-------------|
A|-------8--8--10-10----------10-----------8--8--10-10-----------------------|
E|-10-10-----------------------------10-10-----------------------------------|

Guitar 1

e|---------------------------------------------------------------------------------------|
B|-------------------\13-13-11--11-11----------------------------------------------------|
G|-------10-10-12-12------------------12--12-12-10--10-10--------------------------------|
D|-12-12--------------------------------------------------12--12-12p10-------------------|
A|---------------------------------------------------------------------13-10-------------|
E|---------------------------------------------------------------------------------------|

Guitar 2

e|---------------------------------------------------------------------------------------|
B|---------------------------------------------------------------------------------------|
G|---------------------------------------------------------------------------------------|
D|--------------------10--10-8---8--8------------------------------------------8-8p7-----|
A|-------8--8--10-10------------------10--10-10-8---8--8------------------------------10-|
E|-10-10--------------------------------------------------10--10-10-8--6--3--------------|


[Verse 1]

Guitar 1

e|---------------------------------------------------------------------------|
B|-------------------11-11p10---------------------------11-11p10-------------|
G|-------10-10-12-12----------12p10---------10-10-12-12----------12p10-------|
D|-12-12-----------------------------12-12-----------------------------------| x2
A|---------------------------------------------------------------------------|
E|---------------------------------------------------------------------------|


e|---------------------------------------------------------------------------|
B|-------------------11-11p10------------------------------------------------|
G|-------10-10-12-12----------12p10---------10-10-12-12----------------------|
D|-12-12-----------------------------12-12--------------10-10p8--------------|
A|--------------------------------------------------------------10p8---------|
E|---------------------------------------------------------------------------|


e|---------------------------------------------------------------------------|
B|------------------------------------------------------/13-13-11------------|
G|-------10-10-12-12------------------------10-10-12-12----------------------|
D|-12-12-------------10-10p8---------12-12-----------------------------------|
A|---------------------------10p8--------------------------------------------|
E|---------------------------------------------------------------------------|


e|---------------------------------------------------------------------------|
B|-------------------11-11p10---------------------------11-11p10-------------|
G|-------10-10-12-12----------12p10---------10-10-12-12----------12p10-------|
D|-12-12-----------------------------12-12-----------------------------------|
A|---------------------------------------------------------------------------|
E|---------------------------------------------------------------------------|


e|---------------------------------------------------------------------------|
B|-------------------11-11p10---------------------------11-11p10-------------|
G|-------10-10-12-12----------12------------10-10-12-12----------12p10-------|
D|-12-12-----------------------------12-12-----------------------------------|
A|---------------------------------------------------------------------------|
E|---------------------------------------------------------------------------|


e|---------------------------------------------------------------------------|
B|-------------------11-11p10---------------------------11-11p10-------------|
G|-------10-10-12-12----------12p10---------10-10-12-12----------12p10-------|
D|-12-12-----------------------------12-12-----------------------------------|
A|---------------------------------------------------------------------------|
E|---------------------------------------------------------------------------|


e|---------------------------------------------------------------------------|
B|--------------------------------------------------------/13-13-11----------|
G|-------10-10-12-12------------------------10-10-12-12----------------------|
D|-12-12--------------10-10-8--------12-12-----------------------------------|
A|---------------------------------------------------------------------------|
E|---------------------------------------------------------------------------|


e|---------------------------------------------------------------------------|
B|-------------------11-11p10---------------------------11-11p10-------------|
G|-------10-10-12-12----------12------------10-10-12-12----------12----------|
D|-12-12-----------------------------12-12-----------------------------------| x3
A|---------------------------------------------------------------------------|
E|---------------------------------------------------------------------------|


Guitar 2

e|-----------------10-10--10-10-------------------------10-10-------------------------|
B|-11-11-11-11-----11-11--11-11---13--13-13--13-15------11-11---11--13--13-13--13-15--|
G|-12-12-12-12-----12-12--12-12---12--12-12--12-12------12-12---12--12--12-12--12-12--|
D|-12-12-12-12-----12-12--12-12-------------------------12-12---12--------------------|
A|------------------------------------------------------------------------------------|
E|------------------------------------------------------------------------------------|

Guitar 1

e|---------------------------------------------------------------------------|
B|--------------------------------------------------------/13-13-11----------|
G|-------10-10-12-12------------------------10-10-12-12----------------------|
D|-12-12--------------10-10-8--------12-12-----------------------------------|
A|---------------------------------------------------------------------------|
E|---------------------------------------------------------------------------|


[Chorus]

Guitar 1

e|---------------------------------------------------------------------------|
B|--------------------11-11p10-----------------------11-11p10----------------|
G|-12-12-12-12-12--12----------12-10-10-10-10-10--10----------12-------------|
D|---------------------------------------------------------------------------|
A|---------------------------------------------------------------------------|
E|---------------------------------------------------------------------------|


e|---------------------------10----------------------------------------------|
B|-13-13-13-13-13-13--13--13---10-11-11-11-11-11-13-13p11-10-----------------|
G|---------------------------------------------------------------------------|
D|---------------------------------------------------------------------------|
A|---------------------------------------------------------------------------|
E|---------------------------------------------------------------------------|


e|---------------------------------------------------------------------------|
B|--------------------11-11p10-----------------------11-11p10----------------|
G|-12-12-12-12-12--12----------12-10-10-10-10-10--10----------12-------------|
D|---------------------------------------------------------------------------|
A|---------------------------------------------------------------------------|
E|---------------------------------------------------------------------------|


e|---------------------------10----------------------------------------------|
B|-13-13-13-13-13-13--13--13---10-11-11-11-11-11-13-13p11-10-----------------|
G|-----------------------------------------------------------12\-------------|
D|---------------------------------------------------------------------------|
A|---------------------------------------------------------------------------|
E|---------------------------------------------------------------------------|


Guitar 2

e|---------------------------------------------------------------------------|
B|-------------------11-11p10---------------------------11-11p10-------------|
G|-------10-10-12-12----------12------------10-10-12-12----------12----------|
D|-12-12-----------------------------12-12-----------------------------------| 
A|---------------------------------------------------------------------------|
E|---------------------------------------------------------------------------|


e|---------------------------------------------------------------------------|
B|-------------------11-11p10---------------------------13-13p11-10----------|
G|-------10-10-12-12----------12------------10-10-12-12----------------------|
D|-12-12-----------------------------12-12-----------------------------------| 
A|---------------------------------------------------------------------------|
E|---------------------------------------------------------------------------|


e|---------------------------------------------------------------------------|
B|-------------------11-11p10---------------------------11-11p10-------------|
G|-------10-10-12-12----------12------------10-10-12-12----------12----------|
D|-12-12-----------------------------12-12-----------------------------------| 
A|---------------------------------------------------------------------------|
E|---------------------------------------------------------------------------|


e|---------------------------------------------------------------------------|
B|-------------------11-11p10---------------------------13-13p11-10----------|
G|-------10-10-12-12----------12------------10-10-12-12-------------12\------|
D|-12-12-----------------------------12-12-----------------------------------| 
A|---------------------------------------------------------------------------|
E|---------------------------------------------------------------------------|


[Verse 2]

Guitar 1

e|---------------------------------------------------------------------------|
B|-------------------11-11p10---------------------------11-11p10-------------|
G|-------10-10-12-12----------12p10---------10-10-12-12----------12p10-------|
D|-12-12-----------------------------12-12-----------------------------------| x2
A|---------------------------------------------------------------------------|
E|---------------------------------------------------------------------------|


e|---------------------------------------------------------------------------|
B|------------------------------------------------------/13-13-11------------|
G|-------10-10-12-12------------------------10-10-12-12----------------------|
D|-12-12-------------10-10p8---------12-12-----------------------------------|
A|--------------------------10-----------------------------------------------|
E|---------------------------------------------------------------------------|


Guitar 2

e|---------------x-10-----------------------10--10-10-10-10--10-10-10-10---15-15-15-15-15-15----|
B|-13-13--13-15--x-11---13--13-13--13-15----11--11-11-11-11--11-11-11-11---13-13-13-13-13-13----|
G|-12-12--12-12--x-12---12--12-12--12-12----12--12-12-12-12--12-12-12-12---12-12-12-12-12-12----|
D|---------------x-x---------------------------------------------------------------------------|
A|---------------------------------------------------------------------------------------------|
E|---------------------------------------------------------------------------------------------|


[Chorus]

Guitar 1

e|---------------------------------------------------------------------------|
B|--------------------11-11p10-----------------------11-11p10----------------|
G|-12-12-12-12-12--12----------12-10-10-10-10-10--10----------12-------------|
D|---------------------------------------------------------------------------|
A|---------------------------------------------------------------------------|
E|---------------------------------------------------------------------------|


e|---------------------------10----------------------------------------------|
B|-13-13-13-13-13-13--13--13---10-11-11-11-11-11-13-13p11-10-----------------|
G|---------------------------------------------------------------------------|
D|---------------------------------------------------------------------------|
A|---------------------------------------------------------------------------|
E|---------------------------------------------------------------------------|


e|---------------------------------------------------------------------------|
B|--------------------11-11p10-----------------------11-11p10----------------|
G|-12-12-12-12-12--12----------12-10-10-10-10-10--10----------12-------------|
D|---------------------------------------------------------------------------|
A|---------------------------------------------------------------------------|
E|---------------------------------------------------------------------------|


e|---------------------------10----------------------------------------------|
B|-13-13-13-13-13-13--13--13---10-11-11-11-11-11-13-13p11-10-----------------|
G|---------------------------------------------------------------------------|
D|---------------------------------------------------------------------------|
A|---------------------------------------------------------------------------|
E|---------------------------------------------------------------------------|


Guitar 2

e|---------------------------------------------------------------------------|
B|-------------------11-11p10---------------------------11-11p10-------------|
G|-------10-10-12-12----------12------------10-10-12-12----------12----------|
D|-12-12-----------------------------12-12-----------------------------------| 
A|---------------------------------------------------------------------------|
E|---------------------------------------------------------------------------|


e|---------------------------------------------------------------------------|
B|-------------------11-11p10---------------------------13-13p11-10----------|
G|-------10-10-12-12----------12------------10-10-12-12----------------------|
D|-12-12-----------------------------12-12-----------------------------------| 
A|---------------------------------------------------------------------------|
E|---------------------------------------------------------------------------|


e|---------------------------------------------------------------------------|
B|-------------------11-11p10---------------------------11-11p10-------------|
G|-------10-10-12-12----------12------------10-10-12-12----------12----------|
D|-12-12-----------------------------12-12-----------------------------------| 
A|---------------------------------------------------------------------------|
E|---------------------------------------------------------------------------|


e|---------------------------------------------------------------------------|
B|-------------------11-11p10---------------------------13-13p11-10----------|
G|-------10-10-12-12----------12------------10-10-12-12----------------------|
D|-12-12-----------------------------12-12-----------------------------------| 
A|---------------------------------------------------------------------------|
E|---------------------------------------------------------------------------|


[Bridge]

e|---------------------------------------------------------------------------|
B|----------10-10----------------------------------10-10---------------------|
G|-12-12-12-------10-10-12--10-10-12-10---12-12-12-------10-10-12--12--------|
D|--------------------------------------------------------------------12-12--| x2
A|---------------------------------------------------------------------------|
E|---------------------------------------------------------------------------|


e|-10-----------10-----------10-----------10---------------------------------|
B|----13-11-10-----13-11-10-----13-11-10-----13-11-10---10h11----------------|
G|------------------------------------------------------------10h12----------|
D|------------------------------------------------------------------10h12----|
A|---------------------------------------------------------------------------|
E|---------------------------------------------------------------------------|


e|---------------------------------------------------------------------------|
B|----------10-10---------------------------------10-10----------------------|
G|-12-12-12-------10-10-12--10-10-12-10--12-12-12-------10-10----10----12-10-|
D|-------------------------------------------------------------12----12------|
A|---------------------------------------------------------------------------|
E|---------------------------------------------------------------------------|


e|---------------------------------------------------------------------------|
B|----10---10----10-----------------------10---10----10----------------------|
G|-12----12---12----12---10-10-12-10---12----12---12----12---10----12--------|
D|---------------------12----------------------------------12---12-----------|
A|---------------------------------------------------------------------------|
E|---------------------------------------------------------------------------|


e|-10-----------10-----------10-----------10---------------------------------|
B|----13-11-10-----13-11-10-----13-11-10-----13-11-10---10h11----------------|
G|------------------------------------------------------------10h12----------|
D|------------------------------------------------------------------10h12----|
A|---------------------------------------------------------------------------|
E|---------------------------------------------------------------------------|


e|---------------------------------------------------------------------------|
B|-10h11-------10-11------------------10h11-------10-11----------------------|
G|-------10h12-------10----10-10-12---------10h12-------10----10-10-12-------|
D|----------------------12---------------------------------12----------------| x2
A|---------------------------------------------------------------------------|
E|---------------------------------------------------------------------------|


e|-10-----------10-----------10-----------10---------------------------------|
B|----13-11-10-----13-11-10-----13-11-10-----13-11-10---10h11----------------|
G|------------------------------------------------------------10h12----------|
D|------------------------------------------------------------------10h12----|
A|---------------------------------------------------------------------------|
E|---------------------------------------------------------------------------|


e|---------------------------------------------------------------------------|
B|-10h11-------10-11------------------10h11-------10-11----------------------|
G|-------10h12-------10----10-10-12---------10h12-------10----10-10-12-------|
D|----------------------12---------------------------------12----------------| x2
A|---------------------------------------------------------------------------|
E|---------------------------------------------------------------------------|


e|-10-----------10-----------10-----------10---------------------------------|
B|----13-11-10-----13-11-10-----13-11-10-----13-11-10---10h11----------------|
G|------------------------------------------------------------10h12----------|
D|------------------------------------------------------------------10h12----|
A|---------------------------------------------------------------------------|
E|---------------------------------------------------------------------------|


e|---------------------------------------------------------------------------|
B|----10---10----10----------------------10---10----10-----------------------|
G|-12----12---12---12----10-10-12-----12----12---12----12---10-10-12---------|
D|--------------------12----------------------------------12-----------------| x2
A|---------------------------------------------------------------------------|
E|---------------------------------------------------------------------------|


e|-10-----------10-----------10-----------10---------------------------------|
B|----13-11-10-----13-11-10-----13-11-10-----13-11-10---10h11----------------|
G|------------------------------------------------------------10h12----------|
D|------------------------------------------------------------------10h12----|
A|---------------------------------------------------------------------------|
E|---------------------------------------------------------------------------|


[Pre-Chorus]

e|---------------------------------------------------------------------------|
B|---------------------------------------------------------------------------|
G|---------------------------------------------------------------------------|
D|------------8p7---------8h10---------------8p7---------8h10----------------| x6
A|--10-10-10------10-8-------------10-10-10------10-8------------------------|
E|---------------------10-----------------------------10---------------------|


[Chorus]

Guitar 1

e|---------------------------------------------------------------------------|
B|---------------------------------------------------------------------------|
G|---------------------------------------------------------------------------|
D|------------8p7---------8h10---------------8p7---------8h10----------------| x4
A|--10-10-10------10-8-------------10-10-10------10-8------------------------|
E|---------------------10-----------------------------10---------------------|


Guitar 2

e|---------------------------------------------------------------------------|
B|-------10----------------------------10------------------------------------|
G|---12-----10-----10--12-----------12-----10------10--12--------------------|
D|--------------12-----------------------------12----------------------------| x4
A|---------------------------------------------------------------------------|
E|---------------------------------------------------------------------------|


[Outro]

Guitar 1

e|---------------------------------------------------------------------------|
B|---------------------------------------------------------------------------|
G|---------------------------------------------------------------------------|
D|------------8p7---------8h10---------------8p7---------8h10----------------|
A|--10-10-10------10-8-------------10-10-10------10-8------------------------| x4
E|---------------------10-----------------------------10---------------------|


Guitar 2

e|---------------------------------------------------------------------------|
B|--------------------11-11p10-----------------------11-11p10----------------|
G|-12-12-12-12-12--12----------12-10-10-10-10-10--10----------12-------------|
D|---------------------------------------------------------------------------|
A|---------------------------------------------------------------------------|
E|---------------------------------------------------------------------------|


e|---------------------------10----------------------------------------------|
B|-13-13-13-13-13-13--13--13---10-11-11-11-11-11-13-13p11-10-----------------|
G|---------------------------------------------------------------------------|
D|---------------------------------------------------------------------------|
A|---------------------------------------------------------------------------|
E|---------------------------------------------------------------------------|


e|---------------------------------------------------------------------------|
B|--------------------11-11p10-----------------------11-11p10----------------|
G|-12-12-12-12-12--12----------12-10-10-10-10-10--10----------12-------------|
D|---------------------------------------------------------------------------|
A|---------------------------------------------------------------------------|
E|---------------------------------------------------------------------------|


e|---------------------------10----------------------------------------------|
B|-13-13-13-13-13-13--13--13---10-11--15-13--13------------------------------|
G|---------------------------------------------15--15-14--12-----------------|
D|---------------------------------------------------------------------------|
A|---------------------------------------------------------------------------|
E|---------------------------------------------------------------------------|            
Submit corrections

↑ Back to top | Tablatures and chords for acoustic guitar and electric guitar, ukulele, drums are parodies/interpretations of the original songs. You may use it for private study, scholarship, research or language learning purposes only