Home » F » Foals »

Foals - The Runner Tabs

Artists:  A B C D E F G H I J K L M N O P Q R S T U V W X Y Z # 

The Runner Tabs

(ver. 1) Click to play this song!
Foals
[Intro]

E|--------------------------------------------------------------|
B|--------------------------------------------------------------|
G|--------------------------------------------------------------|
D|-------------------3h5r3-----------3h5r3----------------------|
A|-------------------------5-5-------------5-5------------------|
D|-0-h12\--0--3--5---------------5--------------8---0-8-8-8-7---|

E|--------------------------------------------------------------|
B|--------------------------------------------------------------|
G|--------------------------------------------------------------|
D|----------------7h8r7-----5p3-----7h8r7----8--0-10-10-10-12---|
A|----------------------8-------3---------8---------------------|
D|-0----0--3--5-------------------------------------------------|

[Verse 1]
E|--------------------------------------------------------------|
B|--------------------------------------------------------------|
G|--------------------------------------------------------------|
D|---------------3h5r3----------3h5r3---------------------------|
A|---------------------5-5------------5-5-----------------------|
D|-0----0--3--5------------5---------------8---0-10-10-10-12----|

E|--------------------------------------------------------------|
B|--------------------------------------------------------------|
G|--------------------------------------------------------------|
D|-----------------3h5r3---------3h5r3-------0-3-3-3-0----------|
A|-----------------------5-5-----------5-5---------------3------|
D|-0-12--0--3--5-------------5-------------8--------------------|

E|--------------------------------------------------------------|
B|--------------------------------------------------------------|
G|--------------------------------------------------------------|
D|----------------3h5r3-------3h5r3-----------------------------|
A|----------------------5-5-----------5-5-----------------------|
D|-0----0--3--5-------------5-------------8---0-10-10-10-12-----|

E|--------------------------------------------------------------|
B|--------------------------------------------------------------|
G|--------------------------------------------------------------|
D|--------------------3h5r3---------3h5r3-----------------------|
A|----------------5---------5-5---5--------5-5------------------|
D|-0-12--0--3--5--5-------------5-5------------8--0-10-10-10-12-|


[Chorus]


[Verse 2]
E|--------------------------------------------------------------|
B|--------------------------------------------------------------|
G|--------------------------------------------------------------|
D|----------------3h5r3-----------3h5r3-------------------------|
A|----------------------5-5-------------5-5---------------------|
D|-0----0--3--5---------------5--------------8---0-8-8-8-7------|

E|--------------------------------------------------------------|
B|--------------------------------------------------------------|
G|--------------------------------------------------------------|
D|----------------3h5r3--------3h5r3----------------------------|
A|----------------------5-5------------5-5----8--0-10-10-10-12--|
D|-0----0--3--5-------------5-----------------------------------|

E|--------------------------------------------------------------|
B|--------------------------------------------------------------|
G|--------------------------------------------------------------|
D|-----------------7h8r7----------7h8r7-------------------------|
A|-----------------------8-/10-8--------8-8---0-10-8-7-5--------|
D|-0-12---0--3--5-----------------------------------------------|

E|--------------------------------------------------------------|
B|--------------------------------------------------------------|
G|--------------------------------------------------------------|
D|--------------------3h5r3----------3h5r3----------------------|
A|----------------5---------5-5---5--------5-5------------------|
D|-0-12---0--3--5-5-------------5-5------------8--0-10-10-10-12-|


[Solo]
E|------------------------------------------------------|
B|-13-13-10-10-10------10-10----------------------------|
G|---------------10h12-------12-12-10h12r10-------------|
D|------------------------------------------12-10h12----|
A|------------------------------------------------------|
D|------------------------------------------------------|

E|------------------------------------------------------|
B|-13-13-10-10-10------10-10---------13-15-15-15--------|
G|---------------10h12------12-12-----------------------|
D|------------------------------------------------------|
A|------------------------------------------------------|
D|------------------------------------------------------|

E|--------------------------------------------------------------------------------------|
B|-18-18-13-13-13\10--/13-10-10----------------------------------------10-10-10-10-10\--|
G|-------------------------------10h12r10-----------10h12r10----------------------------|
D|----------------------------------------12-10h12-----------12-10-12-------------------|
A|--------------------------------------------------------------------------------------|
D|--------------------------------------------------------------------------------------|


[Extended Solo]

E|------------------------------------------------------|
B|-13-13-10-10-10------10-10----------------------------|
G|---------------10h12-------12-12-10h12r10-------------|
D|------------------------------------------12-10h12----|
A|------------------------------------------------------|
D|------------------------------------------------------|

E|------------------------------------------------------|
B|-13-13-10-10-10------10-10---------13-15-15-15--------|
G|---------------10h12------12-12-----------------------|
D|------------------------------------------------------|
A|------------------------------------------------------|
D|------------------------------------------------------|

E|--------------------------------------------------------------------------------------|
B|-18-18-13-13-13\10--/13-10-10----------------------------------------10-10-10-10-10\--|
G|-------------------------------10h12r10----------10--10h12r10-------------------------|
D|----------------------------------------12-10h12-------------12-10h12-----------------|
A|--------------------------------------------------------------------------------------|
D|--------------------------------------------------------------------------------------|

E|------------------------------------------------------|
B|-10---------------------/13-10------------------------|
G|----12p10----------10~--------12-10--10-12------------|
D|----------12-10-12-----------------12-----------------|
A|------------------------------------------------------|
D|------------------------------------------------------|

E|-17-15--10-13--10------------10-----------------------|
B|-------------------10--13-13--------------------------|
G|------------------------------------------------------|
D|------------------------------------------------------|
A|------------------------------------------------------|
D|------------------------------------------------------|

E|-10/13-10/12-10---------------------------------------|
B|----------------10-13-10------------------------------|
G|-------------------------12p10------------------------|
D|-------------------------------12-10-12---------------|
A|------------------------------------------------------|
D|------------------------------------------------------|

E|----------------------------------------------------------------------|
B|----------------------------------------------------------------------|
G|----10-10-10-10-10-10-10-10-10/12--12h14-12h14-12h14-12h14-12h14------|
D|----------------------------------------------------------------------|
A|----------------------------------------------------------------------|
D|----------------------------------------------------------------------|            
Submit corrections

↑ Back to top | Tablatures and chords for acoustic guitar and electric guitar, ukulele, drums are parodies/interpretations of the original songs. You may use it for private study, scholarship, research or language learning purposes only