Home » F » Foals »

Foals - Late Night Bass

Artists:  A B C D E F G H I J K L M N O P Q R S T U V W X Y Z # 

Late Night Bass

(ver. 1) Click to play this song!
Foals
bass coming in 1:06
                                                 x5
G|--------------------------------------------------|
D|--------------------------------------------------|
A|--------------------------------------------------|
D|-000-0-0-0-333-3-3-3/101010-10-10-10-888-8h10-8-5-|

G|--------------------------------------------------|
D|--------------------------------------------------|
A|--------------------------------------------------|
D|-000-0-0-0-333-3-3-3/101010-10-10-10-888-10-10-10-|

                                                 x3 
G|--------------------------------------------------|
D|--------------------------------------------------|
A|--------------------------------------------------|
D|-000-0-0-0-333-3-3-3/101010-10-10-10-888-5-5-5----|


G|--------------------------------------------------|
D|--------------------------------------------------|
A|--------------------------------------------------|
D|-000-0-0-0-333-3-3-3/101010-10-10-10-888-5-5-5-0~-|


rest

2:37                         x8
G|-------------------------|
D|-------------------------|
A|-------------------------|
D|-8888-10101010-5555-7777-|


G|--------------------------------------------------|
D|--------------------------------------------------|
A|--------------------------------------------------|
D|-0000-2333/10101010-8888-78888-3333/10101010-5555-|

G|-------------------------------------------|
D|-------------------------------------------|
A|-------------------------------------------|
D|-0000-2333/10101010-8888-78888-3333/10~-5~-|

rest
                                               x3
G|----------------------------------------------|
D|---------5-----------------------12-----------|
A|-------3----------------------10--------------|
D|-000-0-----333-3-3-3/10810-10-------888-5-5-5-|

                                               x3
G|----------------------------------------------|
D|---5-----5-----------------------12-----------|
A|-------3----------------------10--------------|
D|-00--0-----333-3-3-3/10810-10-------888-5-5-5-|


G|-----|
D|-----|
A|-----|
D|-0~~-|
            
Submit corrections

↑ Back to top | Tablatures and chords for acoustic guitar and electric guitar, ukulele, drums are parodies/interpretations of the original songs. You may use it for private study, scholarship, research or language learning purposes only