Home » F » Foals »

Foals - Exits Tabs

Artists:  A B C D E F G H I J K L M N O P Q R S T U V W X Y Z # 

Exits Tabs

(ver. 1) Click to play this song!
Foals
[Verse]
(Guitar hits when snare hits )
e|--------------------------|
B|--------------------------|
G|--------------------------|
D|---12---10-12----3----5---|
A|---12---10-12----3----5---|
D|---12---10-12----3----5---|

[Chorus]
e|-----------------------------|
B|-----------------------------|
G|-----------------------------|
D|---7---7---3--5--------------|
A|---5---5--3---5--------------|
D|---0---0--3---5--------------|

[Outro] « upside down »
e|-----------------------------------------|
B|-----------------------------------------|
G|---12--11--9-9-11-7--9--5-5-7--3-2-0-----|
D|-----------------------------------------|
A|-----------------------------------------|
D|-----------------------------------------|


e|-----------------------------------------|
B|-----------------------------------------|
G|---12--11--9-9-11-7--9--5-5-7--9-10-9----|
D|-----------------------------------------|
A|-----------------------------------------|
D|-----------------------------------------|            
Submit corrections

↑ Back to top | Tablatures and chords for acoustic guitar and electric guitar, ukulele, drums are parodies/interpretations of the original songs. You may use it for private study, scholarship, research or language learning purposes only