Home » F » Flys »

Flys - Got You (Where I Want You) Bass

Artists:  A B C D E F G H I J K L M N O P Q R S T U V W X Y Z # 

Got You (Where I Want You) Bass

(ver. 1) Click to play this song!
Flys
-------------------------------------------------------------------------------
			     Got you where I want you - The Flys
-------------------------------------------------------------------------------


Here is the correct version.   Enjoy!

Tuning:  Standard

Main Verse:  (from the opening line)


G------------------------------------|
D------------------------------------|
A--6-5-6--6-5-6----------------------|
E-------------------4--4--4--4--4--4-|


Chorus:

"ewwwww,   got you where i want you"

G-------------------------------------|
D-------------------------------------|
A--6---6---6---6----------------------|
E--------------------4---4---4---4--4-|

Closing Riff:

"some er other, some will miss another"
not 100% sure of the lyrics...


G-------------------------------------|
D--5--3--5--5--3--5--6--6--6--6--6----|    Try this a bunch of times
A-------------------------------------|  at the end of the song...
E-------------------------------------|

| /  slide up
| \  slide down
| h  hammer-on
| p  pull-off
| ~  vibrato
| +  harmonic
| x  Mute note
===============================================================================
            
Submit corrections

↑ Back to top | Tablatures and chords for acoustic guitar and electric guitar, ukulele, drums are parodies/interpretations of the original songs. You may use it for private study, scholarship, research or language learning purposes only