Home » F » Flys »

Flys - Got You (Where I Want You) Chords

Artists:  A B C D E F G H I J K L M N O P Q R S T U V W X Y Z # 

Got You (Where I Want You) Chords

(ver. 1) Click to play this song!
Flys
#This guitar tab is the author's own work and represents their interpretation of the #

This song was previously transcribed and is right except that your guitar needs to be
tuned one half step down

Eb, Ab, C#, F#, Bb, Eb,

Thanks

   
  
   CHORDS:
   
      
   E (022100)
   A (x02220)
   
   
   INTRO:
   
   RIFF 1: [also used in the verses]

        E                       A
   E|----------------------------------------------------|
   B|----------------------------------------------------|
   G|----------------------------------------------------|
   D|---------------------------7-7-7--7----7---7-7--7---|
   A|------7--6--7-----7--6--7--0-0-0--0----0---0-0--0---|
   E|---0-----------0------------------------------------|
   
   
   VERSE 1: [play with RIFF 1]
   
   E    A                    E      A
   Hey,   what's the point of this?

      E    A                      E                    A
   Oh hey,   what's your favorite song, maybe we could hum along

   E                     A
    Well, I think you're smart, you sweet thing

   E             A
    Tell me your name, I'm dying here
   
   
   CHORUS:
   
      E       A
   Ah oooooooooooooh

                   E              A
   Got you where I want you, yeah yeah

      E       A
   Ah oooooooooooooh

                   E         A
   Got you where I want you, yeah

   
   
   VERSE 2: [play like verse 1]
   
   Hey, maybe just a smile
   Oh hey, did you know that I can dance, could we talk for a while?
   Well, I think you're smart, you sweet thing
   Tell me your sign, I'm dying here
   
   
   CHORUS: [play like first chorus]
   
   Ah oooooooooooooh
   Got you where I want you, yeah
   Ah oooooooooooooh
   Got you where I want you, where I want you, I want you
   
   
   [In the bridge you play this:]
   
   RIFF 2:
       E                                       A
   E|----------------------------------------------------------------|
   B|----------------------------------------------------------------|
   G|----------------------------------------------------------------|
   D|----------------------------------------------------------------|
   A|------11-9-11-9-11-9-11---11-9-11-9-11-9--7--7-7-7--7--7--7--7--|
   E|--0---0--0-0--0-0--0-0----0--0-0--0-0--0--5--5-5-5--5--5--5--5--|
   
   BRIDGE:
   
   E
    Suffer, suffer, it don't get no rougher

   A
    Rockin' the baby girl jojo me like no other

   E
    Suffer, suffer, it don't get no rougher

   A
    When they rock me baby put the thing on the lover
   
   
   VERSE 3: [play with RIFF 1]
   
   E               A
    I think you're smart, you sweet thing

   E             A
    Tell me your name, I'm dying here
   
   
   CHORUS:
   
      E      A
   Ah oooooooooooooh

                   E         A
   Got you where I want you, yeah

                   E         A
   Got you where I want you, yeah

                   E                   A
   Got you where I want you, want you, want you, yeah
            
Submit corrections

↑ Back to top | Tablatures and chords for acoustic guitar and electric guitar, ukulele, drums are parodies/interpretations of the original songs. You may use it for private study, scholarship, research or language learning purposes only