» » »

Flys - Got You (Where I Want You) Tabs

Artists:  A B C D E F G H I J K L M N O P Q R S T U V W X Y Z # 

Got You (Where I Want You) Tabs

(ver. 1) Click to play this song!
Flys
 Rating:
4/5 (4 votes)

 Got You (Where I Want You) lessons Tabs too difficult? Try these video lessons and learn fast
 
                

Tuning: 1/2 Step Down (Eb Ab Db Gb Bb eb)

---------|------------------------------------------------------|-------------|
---------|------------------------------------------------------|-------------|
---------|------------------------------------------------------|-------------|
---------|-------------------------5/7--7--7--7-7----7--7-7-7-7-|-------------|
---------|----7--6--7-----7--6--7--0----0--0--0-0-0--0--0-0-0-0-|-------------|
---------|-0-----------0----------------------------------------|-------------|
  Intro/Verse         

---------|-x--x-x-x--x-x-x--x--x-x-x-x-x--x-x-x--x-x-x--x--x-x-x-x-|----------|
---------|-5--5-5-5--5-5-5--5--5-5-5-5-5--5-5-5--5-5-5--5--5-5-5-5-|----------|
---------|-4--4-4-4--4-4-4--4--4-4-4-4-6--6-6-6--6-6-6--6--6-6-6-6-|----------|
---------|---------------------------------------------------------|----------|
---------|---------------------------------------------------------|----------|
---------|---------------------------------------------------------|----------|
  Chorus  

---------|---------------------------------------------------------|----------|
---------|---------------------------------------------------------|----------|
---------|---------------------------------------------------------|----------|
---------|-6--6-6-6-6--6-6--6-6-6-6--6-7--7-7-7-7--7-7--7-7-7-7--7-|----------|
---------|-7--7-7-7-7--7-7--7-7-7-7--7-7--7-7-7-7--7-7--7-7-7-7--7-|----------|
---------|-x--x-x-x-x--x-x--x-x-x-x--x-x--x-x-x-x--x-x--x-x-x-x--x-|----------|
  Inter   


---------|-x--------x---------|-----------------------------------------------|
---------|-5--------5---------|-----------------------------------------------|
---------|-4--------6---------|-----------------------------------------------|
---------|-6--------7---------|-----------------------------------------------|
---------|-7--------7---------|-----------------------------------------------|
---------|-x--------x---------|-----------------------------------------------|
  The Rest These Chords
            
Submit corrections


        Got You (Where I Want You) lessons Hard to play? Try these video lessons and learn fast Got You (Where I Want You) lessons
        
↑ Back to top | Tablatures and chords for acoustic guitar and electric guitar, ukulele, drums are parodies/interpretations of the original songs. You may use it for private study, scholarship, research or language learning purposes only