» » »

Everything Everything - Zero Pharaoh Tabs

Artists:  A B C D E F G H I J K L M N O P Q R S T U V W X Y Z # 

Zero Pharaoh Tabs

(ver. 2) Click to play this song!
Everything Everything
 Rating:
4.3/5 (23 votes)

 Zero Pharaoh  lessons Tabs too difficult? Try these video lessons and learn fast
 
                intro/verse
transcribed for guitar
--------------------------------------------------------------------------------------------------
--------------------------------------------------------------------------------------------------
--------------------------------------------------------------------------------------------------
--2--2--2--2--2--2--2--2--4--4--4--4--4--4--4--4--5--5--5--5--5--5--5--5--3--3--3--3--0--0--0--0--
---3--3--3--3--3--3--3-----5--5--5--5--5--5--5--5--3--3--3--3--3--3--3--3--3--3--3--3--3--3--3--3-
--------------------------------------------------------------------------------------------------

bridge
----------------17-15--------------------------------------------------
--------15-17~--------17-15------------17---------17---17~---15---15~--
-----14---------------------14~-----14---14~---------------------------
--17-----------------------------17-------------15---15----14---14-----
-----------------------------------------------------------------------
-----------------------------------------------------------------------

second time
----------------17-15-14-----------------------------------------------
--------15-17~----------15------------17---------17---17~---15---15~---
-----14---------------------14~-----14---14~---------------------------
--17-----------------------------17------------15---15----14---14------
-----------------------------------------------------------------------
-----------------------------------------------------------------------

second guitar
--------------------------------------------------------------
--------------------------------------------------------------
--------------------------------------------------------------
--12p10p7-12p10p7-12p10p7-12p10p7-12p10p7-12p10p7-12p10p7-12--
--------------------------------------------------------------
--------------------------------------------------------------

--------------------------------------------------------------
--------------------------------------------------------------
--------------------------------------------------------------
--------------------------------------------------------------
--12p10p7-12p10p7-12p10p7-12p10p7-12p10p7-12p10p7-12p10p7-12--
--------------------------------------------------------------


second verse - guitar starts after "tell me there's a way to cheat death"
------------------------------|----------------------------------------------------------
------------------------------|----------------------------------------------------------
-----------------------5-7----|------------------------------4-4------------------5-7---- repeat this section
--7-7--5-7-7-5--7-7--5-----5--|--7-7--5-7-7-5--7-7--5-7-7-5-------5-7-7-5--7-7--5-----5--
------------------------------|----------------------------------------------------------
------------------------------|----------------------------------------------------------


chorus

-----------------------------------------------------------------------------------
--12-10----12--10----12--10-----12--10----12--10----12--10----12--10----12--10----
--------12--------12--------12---------12--------13--------13--------13--------13--
-----------------------------------------------------------------------------------
-----------------------------------------------------------------------------------
-----------------------------------------------------------------------------------

-----------------------------------------------------------------------------------
--14--12----14--12----14--12---14--12----14--12----14--12----13--12----13--12------
--------14--------14--------14-------14--------14--------14--------14--------14----
-----------------------------------------------------------------------------------
-----------------------------------------------------------------------------------
-----------------------------------------------------------------------------------            
Submit corrections


        Zero Pharaoh  lessons Hard to play? Try these video lessons and learn fast Zero Pharaoh  lessons
        
↑ Back to top | Tablatures and chords for acoustic guitar and electric guitar, ukulele, drums are parodies/interpretations of the original songs. You may use it for private study, scholarship, research or language learning purposes only