Home » E » Everything Everything »

Everything Everything - Zero Pharaoh Tabs

Artists:  A B C D E F G H I J K L M N O P Q R S T U V W X Y Z # 

Zero Pharaoh Tabs

(ver. 1) Click to play this song!
Everything Everything
 Rating:
3.7/5 (24 votes)
                Main Riff Only

Tuning:

e|------------12-----17--15--12----------------12--------------------------------|
B|---------13-------------------13-------------------------17----17------15----15|
G|--12h14--------------------------14----12h14----14-----------------------------|
D|------------------------------------------------------17----17------15----15---|
A|-------------------------------------------------------------------------------|
E|-------------------------------------------------------------------------------|

e|------------12-----17--15--12----------------12--------------------------------|
B|---------13-------------------15-------------------------17----17------15----15|
G|--12h14--------------------------14----12h14----14-----------------------------|
D|------------------------------------------------------17----17------15----15---|
A|-------------------------------------------------------------------------------|
E|-------------------------------------------------------------------------------|

e|------------12-----------------------------------------------------------------|
B|---------13--------------------------------------------------------------------|
G|--12h14------------------------------------------------------------------------|
D|-------------------------------------------------------------------------------|
A|-------------------------------------------------------------------------------|
E|-------------------------------------------------------------------------------|
            
Submit corrections

↑ Back to top | Tablatures and chords for acoustic guitar and electric guitar, ukulele, drums are parodies/interpretations of the original songs. You may use it for private study, scholarship, research or language learning purposes only