Home » E » Everything Everything »

Everything Everything - Zero Pharaoh Bass

Artists:  A B C D E F G H I J K L M N O P Q R S T U V W X Y Z # 

Zero Pharaoh Bass

(ver. 1) Click to play this song!
Everything Everything
 Rating:
4.3/5 (23 votes)
                Tuning: Standard

Verse (0:10)
G|-----------------------------------------------|
D|-----------------------------------------------|
A|--33---3333------------------------------------|
E|--------------5-5---00---05---3555---5-5---33--|
                                                        
G|-----------------------------------------------|
D|-----------------------------------------------|
A|---3---33-3--------------------------7-7---55--|
E|--5------5----5-5---00---05---3535-------------|

G|-----------------------------------------------|
D|-----------------------------------------------|
A|--5----3-3-------------------------------------|
E|---8\--------5-5---00---05\---5-5---5-5---33---|

G|-----------------------------------------------|
D|-----------------------------------------------|
A|-------3-3--------------------------7-7---55---|
E|--8\---------5-5---00---05---5-5---------------|


Guitar Riff
G|-----------------------------------------------|
D|-----------------------------------------------|
A|--53---3333------------------------------------|
E|--------------5-5---00---05---3555---5-5---33--|
                                                        
G|-----------------------------------------------|
D|-----------------------------------------------|
A|---3---33-3--------------------------7-7---55--|
E|--5------5----5-5---00---05---3535-------------|

Chorus
G|-----------------------------------------------|
D|-----------------------------------------------|
A|-3--3--3--3--7--7--7--7------------------------|
E|-------------------------5--5--5--5--5--5--5--7|

G|-----------------------------------------------|
D|-----------------------------------------------|
A|-----------------------------------------------|
E|--8\--5858---0-0---00---05\--5--3535---5-5---77|

Guitar Riff
G|-----------------------------------------------|
D|-----------------------------------------------|
A|--53---3333------------------------------------|
E|--------------5-5---00---05---3555---5-5---33--|
                                                        
G|-----------------------------------------------|
D|-----------------------------------------------|
A|---3---33-3--------------------------7-7---55--|
E|--5------5----5-5---00---05---3535-------------|

Verse
G|-----------------------------------------------|
D|-----------------------------------------------|
A|--53---3-3-------------------------------------|
E|-------------5-5---00---05\---5-5---5-5---33---|

G|-----------------------------------------------|
D|-----------------------------------------------|
A|-------3-3--------------------------7-7---55---|
E|--8\---------5-5---00---05---5-5---------------|

Build (very quiet bass, 16th notes)
G|---------------------------------------------------------------------------|
D|---------------------------------------------------------------------------|
A|---------------------------------------------------------------------------| x2
E|-8888888888888888000000000000000055555555555555555555555555555555----------|

Build pt. 2 (louder, quarter notes)
G|---------------------------------------------------------------------------|
D|---------------------------------------------------------------------------|
A|---------------------------------------------------------------------------| x2
E|--8--8--8--8--0--0--0--0--5--5--5--5--5--5--5--7---------------------------|

(2:37 Enter Synth Bass, exit electric bass)

Bass Enter @ 3:17
G|-----------------------------------------------|
D|-----------------------------------------------|
A|-------3333------------------------------------|
E|--8\----------5-5---00---05\--3555---5-5---33--|
                                                        
G|-----------------------------------------------|
D|-----------------------------------------------|
A|---3---33-3--------------------------7-7---55--|
E|--5------5----5-5---00---05\--3535-------------|            
Submit corrections

↑ Back to top | Tablatures and chords for acoustic guitar and electric guitar, ukulele, drums are parodies/interpretations of the original songs. You may use it for private study, scholarship, research or language learning purposes only