» » »

Evanescence - Only One Tabs

Artists:  A B C D E F G H I J K L M N O P Q R S T U V W X Y Z # 

Only One Tabs

(ver. 3) Click to play this song!
Evanescence
 Rating:
4/5 (4 votes)

 Only One lessons Tabs too difficult? Try these video lessons and learn fast
 
                Song Title: "The Only One" 
Released: "2006"

My First Tab (modified from version 2)

Tunning: Drop 6th from E to D  (D|A|D|G|B|e)

Verse: all palm muted
e|-------------------------------------------------------------------|
B|-------------------------------------------------------------------|
G|-------------------------------------------------------------------|
D|--33333-33-33~1---33333-33-33~1---33333-33-33~1---33333-33-33~1~---|
A|--33333-33-33~1---33333-33-33~1---33333-33-33~1---33333-33-33~1~---|
D|--33333-33-33~1---33333-33-33~1---33333-33-33~1---33333-33-33~1~---|

e|-------------------------------------------------------------------|
B|-------------------------------------------------------------------|
G|-------------------------------------------------------------------|
D|--66666-66-66---66666-66-66~888~--33333-33-33~1---33333-33-33~1----|
A|--44444-44-44---44444-44-44~666~--33333-33-33~1---33333-33-33~1----|
D|--66666-66-66---66666-66-66~888~--33333-33-33~1---33333-33-33~1----|

Prechorus: Piano - "We're all grieving,
                    Lost and bleeding..."

Chorus: 
e|--------------------------------------------------------------------------|
B|--------------------------------------------------------------------------|
G|--------------------------------------------------------------------------|
D|--333113-----------333113----------666556-----------666556----------------|
A|--333113-3-1-4-3~--333113-3-1------444334-3-1-4-3~--444334-3-11-----------|
D|--333113-----------333113-----6-5--666556-----------666556------66-55-----|

e|--------------------------------------------------------------------------|
B|--------------------------------------------------------------------------|
G|--------------------------------------------------------------------------|
D|--333113-----------333113----------666556-----------666556-------------3~-|
A|--333113-3-1-4-3~--333113-3-1------444334-3-1-4-3~--444334-3-11--------3~-|
D|--333113-----------333113-----6-5--666556-----------666556------66-55--3~-|

Repeat verse x2

Repeat Chorus

PreBridge:
"Don't look down,
 Don't look into the eyes of the world beneath you.
 Don't look down, you'll fall down,
 You'll become the sacrifice."
 
Bridge:
e|-----------------------------------------|
B|-----------------------------------------|
G|-----------------------------------------|
D|--5~--3~--6~--1~--3~--1~--6~--5~---------|
A|--3~--1~--4~--1~--3~--1~--4~--3~---------|
D|--5~--3~--6~--1~--3~--1~--6~--5~---------|

(Each chord 8 times)

Repeat chorus

Outro:
e|-----------------------------------------------|
B|-----------------------------------------------|
G|-----------------------------------------------|
D|-33-------33-------33-------33-------3---------|
A|-333-4-3--333-4-3--333-4-3--333-4-3--3---------|
D|-33-3-3---33-3-3---33-3-3---33-3-3---3---------|

~~~~ By Khris7ian : feel free to modify ~~~~~~~~~
            
Submit corrections


        Only One lessons Hard to play? Try these video lessons and learn fast Only One lessons
        
↑ Back to top | Tablatures and chords for acoustic guitar and electric guitar, ukulele, drums are parodies/interpretations of the original songs. You may use it for private study, scholarship, research or language learning purposes only