» » »

Evanescence - Only One Tabs

Artists:  A B C D E F G H I J K L M N O P Q R S T U V W X Y Z # 

Only One Tabs

(ver. 1) Click to play this song!
Evanescence
 Rating:
4/5 (4 votes)

 Only One lessons Tabs too difficult? Try these video lessons and learn fast
 
                im working hard on this cd

Verse: all palm muted
e|-------------------------------------------------------------------------|
B|-------------------------------------------------------------------------|
G|-------------------------------------------------------------------------|
D|--33333-33-33---33333-33-33---33333-33-33---33333-33-33~-----------------|
A|--33333-33-33---33333-33-33---33333-33-33---33333-33-33~-----------------|
D|--33333-33-33---33333-33-33---33333-33-33---33333-33-33~-----------------|

e|-------------------------------------------------------------------------|
B|-------------------------------------------------------------------------|
G|-------------------------------------------------------------------------|
D|--66666-66-66---66666-66-66~--33333-33-33---33333-33-33~-----------------|
A|--66666-66-66---66666-66-66~--33333-33-33---33333-33-33~-----------------|
D|--66666-66-66---66666-66-66~--33333-33-33---33333-33-33~-----------------|

Chorus: 
e|---------------------------------------------------|
B|---------------------------------------------------|
G|---------------------------------------------------|
D|--333---------333----------666---------666---------|
A|--333-3-1-4~--333-3-1------666-3-1-4~--666-3-1-----|
D|--333---------333-----6-5--666---------666-----6-5-|
    ...         ...          ...         ...
e|------------------------------------------------------|
B|------------------------------------------------------|
G|------------------------------------------------------|
D|--333---------333----------666---------666---------3~-|
A|--333-3-1-4~--333-3-1------666-3-1-4~--666-3-1-----3~-|
D|--333---------333-----6-5--666---------666-----6-5-3~-|
    ...         ...          ...         ...
Repeat verse x2
Repeat Chorus
 
bridge:
e|-------------------|
B|-------------------|
G|-------------------|
D|--6~--4~--0~--3~---|
A|--6~--4~--0~--3~---|
D|--6~--4~--0~--3~---|

Repeat chorus

Outro:
e|--------------------------------------------------------------|
B|--------------------------------------------------------------|
G|--------------------------------------------------------------|
D|-33------------3------------3------------3--------------------|
A|-333p1-3p1-3p1-33p1-3p1-3p1-33p1-3p1-3p1-33p1-3p1-3p1---------|
D|-33------------3------------3------------3--------------------|
   ... . . . . . .. . . . . .
            
Submit corrections


        Only One lessons Hard to play? Try these video lessons and learn fast Only One lessons
        
↑ Back to top | Tablatures and chords for acoustic guitar and electric guitar, ukulele, drums are parodies/interpretations of the original songs. You may use it for private study, scholarship, research or language learning purposes only