» » »

Evanescence - Going Under Bass

Artists:  A B C D E F G H I J K L M N O P Q R S T U V W X Y Z # 

Going Under Bass

(ver. 3) Click to play this song!
Evanescence
 Rating:
4/5 (4 votes)

 Going Under lessons Tabs too difficult? Try these video lessons and learn fast
 
                  (0:26) WITH  GUITARS
G|---------------------------|                    G|--------------|
D|--------------|------------|                    D|--------------|
A|--------------|----7107----|    10S NOT 1S      A|-----7107-----|
E|----777-0-77--|910------10-|                    E|-910------107-| 
B|--------------|------------|X8 ON THE LAST TIME B|--------------|
      OPEN OR MUTES
Chorus x3
G|--------------------------------------------------|
D|--------------------------------------------------|
A|--------------------------------------------------|
E|--------------------------------------------------|
B|0~~00-8~~88--3~~33--10~~1010----------------------|

G|---------------------------|                    G|--------------|
D|--------------|------------|                    D|--------------|
A|--------------|----7107----|    10S NOT 1S      A|-----7107-----|
E|----777-0-77--|910------10-|                    E|-910------107-| 
B|--------------|------------|X8 ON THE LAST TIME B|--------------|

Chorus X3
G|--------------------------------------------------|
D|--------------------------------------------------|
A|--------------------------------------------------|
E|--------------------------------------------------|
B|0~~00-8~~88--3~~33--10~~1010----------------------|

Bridge
G|--------------------------------------------------|
D|--------------------------------------------------|
A|--------------------------------------------------|
E|--------------------------------------------------|
B|-88888888777777770000000000000000888888887777-----|
                  
SOLO
G|--------------------------------------------------|
D|--------------------------------------------------|
A|--------------------------------------------------|
E|--------------------------------------------------|
B|0~~00-8~~88--3~~33--10~~1010----------------------|X2

Chorus                                                     END
G|--------------------------------------------------|   G|---------|
D|--------------------------------------------------|   D|---------|
A|--------------------------------------------------|   A|---------|
E|--------------------------------------------------|   E|-777-0-77|
B|0~~00-8~~88--3~~33--10~~1010----------------------|X6 B|---------|
            
Submit corrections


        Going Under lessons Hard to play? Try these video lessons and learn fast Going Under lessons
        
↑ Back to top | Tablatures and chords for acoustic guitar and electric guitar, ukulele, drums are parodies/interpretations of the original songs. You may use it for private study, scholarship, research or language learning purposes only