» » »

Evanescence - Going Under Tabs

Artists:  A B C D E F G H I J K L M N O P Q R S T U V W X Y Z # 

Going Under Tabs

(ver. 2) Click to play this song!
Evanescence
 Rating:
4/5 (4 votes)

 Going Under lessons Tabs too difficult? Try these video lessons and learn fast
 
                Tuning B E A D F# B

1st Verse:
B |----------------------|
F#|----------------------|
D |----------------------|
A |--2--2----2--2-2------|
E |--2--2----2--2-2------|
B |--0--0----0--0-0------|

Guitar 2 (piano arr. for guitar) (0:12,0:37,1:34)
B |-------------13------------------------------------------------|
F#|-------------------------15---------13----12-------13--12------|
D |------------------------------12-------------------------------|
A |--14---------------15--------------------------13-----------12-|
E |---------------------------------------------------------------|
B |---------------------------------------------------------------|

Fill: (0:30,0:42,1:28,1:39)
B |-------------------------|
F#|-------------------------|
D |-------------------------|
A |--2--2----2--2--2--------|
E |--2--2----2--2--2--------|
B |--0--0----0--0--0--------|

1st and 2nd Pre-Choruses: (0:47,1:45)
B |--0~--------0~---------0~---------0~----0~---|
F#|--0~--------0~---------0~---------0~----0~---|
D |--5~--------7~---------2~---------2~----2~---|
A |--5~--------7~---------2~---------2~----2~---|
E |--3~--------5~---------0~---------0~----0~---|
B |---------------------------------------------|

Chorus: (0:58,1:56,2:56)
B |----------------------------------------------------|
F#|----------------------------------------------------|
D |-----------------5-5-5------------------------------|
A |--2---2---2-2--x-5-5-5--5--5--5-------7--7--7-------|
E |--2---2---2-2--x-3-3-3--5--5--5-------5--5--5-------|
B |--0---0---0-0-----------3--3--3--3^p0-5--5--5-------|

B |----------------------------------------------------|
F#|----------------------------------------------------|
D |---------------5-5--5-5-0---------------------------|
A |--2---2---2-2--5-5--5-5-0--5---5-5------------------|
E |--2---2---2-2--3-3--3-3----5---5-5-5-5-5-5----------|
B |--0---0---0-0--------------3---3-3-2-2-2-2-0--------|

B |----------------------------------------------------|
F#|----------------------------------------------------|
D |-----------------5-5-5------------------------------|
A |--2---2---2-2--x-5-5-5--5--5--5-------7--7--7-------|
E |--2---2---2-2--x-3-3-3--5--5--5-------5--5--5-------|
B |--0---0---0-0-----------3--3--3--3^p0-5--5--5-------|

B |----------------------------------------------------|
F#|----------------------------------------------------|
D |---------------5-5--5-5-0---------------------------|
A |--2---2---2-2--5-5--5-5-0--5---5-5------------------|
E |--2---2---2-2--3-3--3-3----5---5-5-5-5--5-5-5-------|
B |--0---0---0-0--------------3---3-3-2-2--2-2-2-------|

Fill:(piano arr. for guitar)(0:47,1:45)
B |---------12-------------------------------------12--|
F#|-------------------12--------13-------10------------|
D |-----12---------12--------12-------12--------11-----|
A |--10---------10--------10-------10--------12--------|
E |----------------------------------------------------|
B |----------------------------------------------------|

B |-----------------------------------------------12---|
F#|--------12-------13--------10-----------------------|
D |-----11-------11--------11------12--11--------------|
A |--12-------12--------12---------------------14------|
E |----------------------------------------12----------|
B |----------------------------------------------------|

B |----------12----------------------------------------|
F#|---------------------12----------13-----------------|
D |-------------------------------------------14-------|
A |------14----------14---------14---------14----------|
E |--12----------12---------12----------12-------------|
B |----------------------------------------------------|

Bridge:(2:18)
B |-----------------------------------------------------|
F#|-----------------------------------------------------|
D |--5--5--5--5--5--5--5--5-\-4--4--4--4--4--4--4-------|
A |--5--5--5--5--5--5--5--5---4--4--4--4--4--4--4-------|
E |--3--3--3--3--3--3--3--3---2--2--2--2--2--2--2--2--2-|
B |------------------------------------------------0--0-|

B |-----------------------------------------------------|
F#|-----------------------------------------------------|
D |-----------------------------------5--5--5--5--5--5--|
A |--2--2--2--2--2--2--2--2--2--2--2--5--5--5--5--5--5--|
E |--2--2--2--2--2--2--2--2--2--2--2--3--3--3--3--3--3--|
B |--0--0--0--0--0--0--0--0--0--0--0--------------------|

B |-----------------------------------------------------|
F#|-----------------------------------------------------|
D |-5--5--5--5--5---4--4--4--4--4-----------------------|
A |-5--5--5--5--5-\-4--4--4--4--4-----------------------|
E |-3--3--3--3--3---2--2--2--2--2-----------------------|
B |-----------------------------------------------------|

Guitar Solo: w/wah (2:34) * = pinch harmonic
B |--------------------------------------------------------|
F#|--------------------------------------------------------|
D |-------------12-12----------------12h14p12---12---------|
A |--------12-14-----14*-14-14-14-14----------14--14p12----|
E |--12-14----------------------------------------------14-|
B |--------------------------------------------------------|

B |------------0-0---------------------------------------------|
F#|----------------15^----15-15-15-15-15-15^-13h15p13-12h13p12-|
D |----------------full------------------3/4-------------------|
A |--12-14*----------------------------------------------------|
E |------------------------------------------------------------|
B |------------------------------------------------------------|

B |--------------------------------------|
F#|-----12-------------------------------|
D |--14----14-12----12----12-14*--12-----|
A |--------------14----14----------------|
E |--------------------------------------|
B |--------------------------------------|

3rd Pre-Chorus: (2:45)
B |--0~--------0~---------0~---------0~----0~-----(0)-|
F#|--0~--------0~---------0~---------0~----0~-----(0)-|
D |--5~--------7~---------2~---------4~----5~-----(5)-|
A |--5~--------7~---------2~---------4~----5~-----(5)-|
E |--3~--------5~---------0~---------2~----3~-----(3)-|
B |---------------------------------------------------|

Outro: (3:18)
B |----------------------------------------------------|
F#|----------------------------------------------------|
D |-----------------5-5-5------------------------------|
A |--2---2---2-2--x-5-5-5--5--5--5-------7--7--7-------|
E |--2---2---2-2--x-3-3-3--5--5--5-------5--5--5-------|
B |--0---0---0-0-----------3--3--3--3^p0-5--5--5-------|

B |----------------------------------------------------|
F#|----------------------------------------------------|
D |---------------5-5--5-5-0---------------------------|
A |--2---2---2-2--5-5--5-5-0--5---5-5------------------|
E |--2---2---2-2--3-3--3-3----5---5-5-5-5-5-5----------|
B |--0---0---0-0--------------3---3-3-2-2-2-2-0--------|

B |----------------------|
F#|----------------------|
D |----------------------|
A |--2---2---2-2--x------|
E |--2---2---2-2--x------|
B |--0---0---0-0---------|
            
Submit corrections


        Going Under lessons Hard to play? Try these video lessons and learn fast Going Under lessons
        
↑ Back to top | Tablatures and chords for acoustic guitar and electric guitar, ukulele, drums are parodies/interpretations of the original songs. You may use it for private study, scholarship, research or language learning purposes only