» » »

Enter Shikari - Sorry Youre Not A Winner Tabs

Artists:  A B C D E F G H I J K L M N O P Q R S T U V W X Y Z # 

Sorry Youre Not A Winner Tabs

(ver. 3) Click to play this song!
Enter Shikari
 Rating:
4/5 (4 votes)

 Sorry Youre Not A Winner lessons Tabs too difficult? Try these video lessons and learn fast
 
                ---------------------------------------------------------------------------
                  SORRY YOU’RE NOT A WINNER - ENTER SHIKARI
---------------------------------------------------------------------------



TUNING IS DROP C# SO THATS JUST DROP D, THEN EVERY STRING HALF A STEP DOWN

INTRO

d#|--------------------------------------------------------------|
A#|--------------------------------------------------------------|
F#|--------------------5-----------------------------------------| 
C#|-----2-3--------2-3--------10---10---10--------10----10----10-| 
G#|---------3-----------------12---12---12--------12----12----12-| 
C#|-0-0--------0-0--------8-8----8----8-----10-10----10----10----| 

|--------------------------------------------------------|
|--------------------------------------------------------|
|--------------------5-----------------------------------|
|-----2-3--------2-3--------10---10---10-----------------|
|---------3-----------------12---12---12--CLAP-CLAP-CLAP-|
|-0-0--------0-0--------8-8----8----8--------------------|

VERSE RIFF (SAME AS INTRO)

|--------------------------------------------------------------|
|--------------------------------------------------------------|
|--------------------5-----------------------------------------| 
|-----2-3--------2-3--------10---10---10--------10----10----10-| X4
|---------3-----------------12---12---12--------12----12----12-| 
|-0-0--------0-0--------8-8----8----8-----10-10----10----10----| 


CHORUS

|--------------------------------------------------------|
|--------------------------------------------------------|
|-------5-------5-----5----------------------------------|
|-0-0-0-7-0-0-0-7-0-0-7--10-10-10-10--10-10-10-10--10-10-|
|-0-0-0---0-0-0---0-0----12-12-12-12--12-12-12-12--12-12-|
|-0-0-0---0-0-0---0-0----10-10-10-10--8--8--8--8---8--8--|


|----------------------------------------------------|
|----------------------------------------------------|
|-------5-------5-----5--5-5-5-5---------------------|
|-------7-------7-----7--7-7-7-7--10-10-10-10--10-10-| X2
|-3-3-3---3-3-3---3-3----5-5-5-5--12-12-12-12--12-12-|
|-3-3-3---3-3-3---3-3----5-5-5-5--8--8--8--8---8--8--|

VERSE RIFF (SAME AS INTRO)

|--------------------------------------------------------------|
|--------------------------------------------------------------|
|--------------------5-----------------------------------------| 
|-----2-3--------2-3--------10---10---10--------10----10----10-| X4
|---------3-----------------12---12---12--------12----12----12-| 
|-0-0--------0-0--------8-8----8----8-----10-10----10----10----| 

CHORUS (SAME AS FIRST CHORUS)

|--------------------------------------------------------|
|--------------------------------------------------------|
|-------5-------5-----5----------------------------------|
|-0-0-0-7-0-0-0-7-0-0-7--10-10-10-10--10-10-10-10--10-10-|
|-0-0-0---0-0-0---0-0----12-12-12-12--12-12-12-12--12-12-|
|-0-0-0---0-0-0---0-0----10-10-10-10--8--8--8--8---8--8--|


|----------------------------------------------------|    |--------------|
|----------------------------------------------------|    |--------------|
|-------5-------5-----5--5-5-5-5---------------------|    |--------------|
|-------7-------7-----7--7-7-7-7--10-10-10-10--10-10-| X2 |-0-0-0-0-LET--|
|-3-3-3---3-3-3---3-3----5-5-5-5--12-12-12-12--12-12-|    |-0-0-0-0-RING-|
|-3-3-3---3-3-3---3-3----5-5-5-5--8--8--8--8---8--8--|    |-0-0-0-0------|

CLEAN GUITAR BIT, SLIGHTLY PALM MUTED

|-8--------8-------8-------|
|-10-------10------8-------|
|-10-(X16)-10-(X8)-10-(X8)-|
|-0--------8-------10------| X6
|--------------------------|
|--------------------------|

LAST CHORUS

|-------8--------8------8----------------------------------|
|-------8--------8------8----------------------------------|
|-------10-------10-----10-12-12-12-12--10-10-10-10--10-10-|
|-------10-------10-----10-10-10-10-10--10-10-10-10--10-10-|
|-0-0-0----0-0-0----0-0----12-12-12-12--8--8--8--8---8--8--|
|-0-0-0----0-0-0----0-0----10-10-10-10--8--8--8--8---8--8--|


|----------------------------------------------------|
|----------------------------------------------------|
|-------5-------5-----5--5-5-5-5---------------------|
|-------7-------7-----7--7-7-7-7--10-10-10-10--10-10-| X2
|-3-3-3---3-3-3---3-3----5-5-5-5--12-12-12-12--12-12-|
|-3-3-3---3-3-3---3-3----5-5-5-5--8--8--8--8---8--8--|

|-----------------|           |-----------------------|    |---------------|
|-----------------|           |-----------------------|    |---------------|
|-------5-------5-| DRUM FILL |-------5-------5-----5-|    |---------------|
|-------7-------7-|           |-------7-------7-----7-| X3 |-000000000-----|
|-0-0-0---0-0-0---|           |-0-0-0---0-0-0---0-0---|    |-000000000-----|
|-0-0-0---0-0-0---|           |-0-0-0---0-0-0---0-0---|    |-000000000-----|

WHAT? WHAT? WHAT!?

|-----------------------|    
|-----------------------|   
|-------5-------5-----5-|   
|-------7-------7-----7-| 
|-0-0-0---0-0-0---0-0---| 
|-0-0-0---0-0-0---0-0---| 
   
|--------------------------------------------------------|
|--------------------------------------THEN DO THAT------|
|--------------------------------------SCREACHY THING----|
|-000000000--0-0-0--00----00-00-00-00--WHERE YOU STRUM---|
|-000000000--0-0-0--00-X3-00-00-00-00--JUST PAST THE NUT-|
|-000000000--0-0-0--00----00-00-00-00--------------------|

|-------------------------------------|    BUT FOR THE LAST 2 RIFFS, 
|-------------------------------------|    PAMP MUTE IT AS HARD AS YOU
|-------------------------------------|    CAN, SO IT SOUNDS AS TIGHT AS THE 
|-00-00-00-00-11-11-11-11-33-33-33-33-|    VIRGIN MARY BEFORE SHE PUSHED
|-00-00-00-00-11-11-11-11-33-33-33-33-|    OUT BABY JESUS
|-00-00-00-00-11-11-11-11-33-33-33-33-| X4

THANKS, ENJOY

===========================================================================
            
Submit corrections


        Sorry Youre Not A Winner lessons Hard to play? Try these video lessons and learn fast Sorry Youre Not A Winner lessons
        
↑ Back to top | Tablatures and chords for acoustic guitar and electric guitar, ukulele, drums are parodies/interpretations of the original songs. You may use it for private study, scholarship, research or language learning purposes only