» » »

Enter Shikari - Sorry Youre Not A Winner Tabs

Artists:  A B C D E F G H I J K L M N O P Q R S T U V W X Y Z # 

Sorry Youre Not A Winner Tabs

(ver. 2) Click to play this song!
Enter Shikari
 Rating:
4/5 (4 votes)

 Sorry Youre Not A Winner lessons Tabs too difficult? Try these video lessons and learn fast
 
                Tuning: Db-Ab-Db-Gb-Bb-Eb

~ Let Ring

EVERY 0 IN THIS TAB IS PALM MUTED

Intro Riff x1 (Distorted)

Eb|---------|----------|-------------------------|
Bb|---------|----------|-------------------------|
Gb|---------|----------|-------------------------|   
Db|---------|-------10-|----10-10-10----10-10-10-|
Ab|---7-8-3-|---7-8----|-00-12-12-12-00-12-12-12-|
Db|-00-0-0--|-00-0-0---|-00---0--0---00---0---0--|

Eb|---------|-----------|-------------|
Bb|-------- |-----------|-------------|
Gb|---------|-----------|-------------|  *CLAP CLAP CLAP!*
Db|---------|--------10-|----10-10-10-|
Ab|---7-8-3-|---7--8----|-00-12-12-12-|
Db|-00-0-0--|-00-0--0---|-00---0---0--|

Verse x4 (Distorted)

Eb|---------|----------|-------------------------|
Bb|---------|----------|-------------------------|
Gb|---------|----------|-------------------------|   
Db|---------|-------10-|----10-10-10----10-10-10-|
Ab|---7-8-3-|---7-8----|-00-12-12-12-00-12-12-12-|
Db|-00-0-0--|-00-0-0---|-00---0--0---00---0---0--|

Chorus x2 (Distorted)

Eb|-----------------------|
Bb|-----------------------|
Gb|-----------------------|
Db|-------10-----10----10-|
Ab|-0-0-0-12-000-12-00-12-|
Db|-0-0-0----000----00----|

Eb|-------------|
Bb|-------------|
Gb|-------------|
Db|-10-10-10-10-|
Ab|-10-10-10-10-|
Db|-10-10-10-10-|

Eb|--------------|
Bb|--------------|
Gb|--------------|
Db|-8-8-8-8--8-8-|
Ab|-8-8-8-8--8-8-|
Db|-8-8-8-8--8-8-|

Eb|-----------------------|
Bb|-----------------------|
Gb|-----------------------|
Db|-3-3-3-3--3-3-3-3--3-3-|
Ab|-3-3-3-3--3-3-3-3--3-3-|
Db|-3-3-3-3--3-3-3-3--3-3-|

Eb|---------|
Bb|---------|
Gb|---------|
Db|-5-5-5-5-|
Ab|-5-5-5-5-|
Db|-5-5-5-5-|

Eb|--------------|
Bb|--------------|
Gb|--------------|
Db|-8-8-8-8--8-8-|
Ab|-8-8-8-8--8-8-|
Db|-8-8-8-8--8-8-|

Intro Riff x1 (Distorted)

Eb|---------|----------|-------------------------|
Bb|---------|----------|-------------------------|
Gb|---------|----------|-------------------------|   
Db|---------|-------10-|----10-10-10----10-10-10-|
Ab|---7-8-3-|---7-8----|-00-12-12-12-00-12-12-12-|
Db|-00-0-0--|-00-0-0---|-00---0--0---00---0---0--|

Eb|---------|-----------|-------------|
Bb|-------- |-----------|-------------|
Gb|---------|-----------|-------------|  *CLAP CLAP CLAP!*
Db|---------|--------10-|----10-10-10-|
Ab|---7-8-3-|---7--8----|-00-12-12-12-|
Db|-00-0-0--|-00-0--0---|-00---0---0--|

Verse x4 (Distorted)

Eb|---------|----------|-------------------------|
Bb|---------|----------|-------------------------|
Gb|---------|----------|-------------------------|   
Db|---------|-------10-|----10-10-10----10-10-10-|
Ab|---7-8-3-|---7-8----|-00-12-12-12-00-12-12-12-|
Db|-00-0-0--|-00-0-0---|-00---0--0---00---0---0--|

Chorus x2 (Distorted)

Eb|-----------------------|
Bb|-----------------------|
Gb|-----------------------|
Db|-------10-----10----10-|
Ab|-0-0-0-12-000-12-00-12-|
Db|-0-0-0----000----00----|

Eb|-------------|
Bb|-------------|
Gb|-------------|
Db|-10-10-10-10-|
Ab|-10-10-10-10-|
Db|-10-10-10-10-|

Eb|--------------|
Bb|--------------|
Gb|--------------|
Db|-8-8-8-8--8-8-|
Ab|-8-8-8-8--8-8-|
Db|-8-8-8-8--8-8-|

Eb|-----------------------|
Bb|-----------------------|
Gb|-----------------------|
Db|-3-3-3-3--3-3-3-3--3-3-|
Ab|-3-3-3-3--3-3-3-3--3-3-|
Db|-3-3-3-3--3-3-3-3--3-3-|

Eb|---------|
Bb|---------|
Gb|---------|
Db|-5-5-5-5-|
Ab|-5-5-5-5-|
Db|-5-5-5-5-|

Eb|--------------|
Bb|--------------|
Gb|--------------|
Db|-8-8-8-8--8-8-|
Ab|-8-8-8-8--8-8-|
Db|-8-8-8-8--8-8-|

Eb|-------------|
Bb|-------------|
Gb|-------------|  Play This Once After Playing Chorus Twice
Db|-0-0-0-0~~~~~|
Ab|-0-0-0-0~~~~~|
Db|-0-0-0-0~~~~~|

Bridge x6 (Clean, Palm Muted)

Eb|-------------------------------------------------|
Bb|-13-13-13-13-13-13-13-13-13-13-13-13-13-13-13-13-|
Gb|-14-14-14-14-14-14-14-14-14-14-14-14-14-14-14-14-|
Db|-15-15-15-15-15-15-15-15-15-15-15-15-15-15-15-15-|
Ab|-------------------------------------------------|
Db|-------------------------------------------------|

Eb|-------------------------|
Bb|-------------------------|
Gb|-14-14-14-14-14-14-14-14-|
Db|-15-15-15-15-15-15-15-15-|
Ab|-13-13-13-13-13-13-13-13-|
Db|-------------------------|

Eb|-------------------------|
Bb|-------------------------|
Gb|-12-12-12-12-12-12-12-12-|
Db|-14-14-14-14-14-14-14-14-|
Ab|-15-15-15-15-15-15-15-15-|
Db|-------------------------|

Chorus x2 (Distorted)

Eb|-----------------------|
Bb|-----------------------|
Gb|-----------------------|
Db|-------10-----10----10-|
Ab|-0-0-0-12-000-12-00-12-|
Db|-0-0-0----000----00----|

Eb|-------------|
Bb|-------------|
Gb|-------------|
Db|-10-10-10-10-|
Ab|-10-10-10-10-|
Db|-10-10-10-10-|

Eb|--------------|
Bb|--------------|
Gb|--------------|
Db|-8-8-8-8--8-8-|
Ab|-8-8-8-8--8-8-|
Db|-8-8-8-8--8-8-|

Eb|-----------------------|
Bb|-----------------------|
Gb|-----------------------|
Db|-3-3-3-3--3-3-3-3--3-3-|
Ab|-3-3-3-3--3-3-3-3--3-3-|
Db|-3-3-3-3--3-3-3-3--3-3-|

Eb|---------|
Bb|---------|
Gb|---------|
Db|-5-5-5-5-|
Ab|-5-5-5-5-|
Db|-5-5-5-5-|

Eb|--------------|
Bb|--------------|
Gb|--------------|
Db|-8-8-8-8--8-8-|
Ab|-8-8-8-8--8-8-|
Db|-8-8-8-8--8-8-|


Eb|-----------------|
Bb|-----------------|
Gb|-----------------| Play This Once After Playing The Chorus Twice
Db|-------12-----12-|
Ab|-0-0-0-10-000-10-|
Db|-0-0-0----000----|

Breakdown (Distorted) 

Eb|-----------------------|
Bb|-----------------------|
Gb|-----------------------|
Db|-------10-----10----10-| x3  
Ab|-0-0-0-12-000-12-00-12-|
Db|-0-0-0----000----00----|

Eb|----------|
Bb|----------|
Gb|----------| Play This Once After The Third Time
Db|----------| 
Ab|-00000000-|
Db|-00000000-|
  
*WHAT WHAT WHAT*

Eb|-----------------------|
Bb|-----------------------|
Gb|-----------------------|
Db|-------10-----10----10-|  
Ab|-0-0-0-12-000-12-00-12-|
Db|-0-0-0----000----00----|

Eb|--------------------|
Bb|--------------------|
Gb|--------------------| 
Db|--------------------| x3
Ab|-00000000-0-0-0--00-|
Db|-00000000-0-0-0--00-|

Eb|-------------|
Bb|-------------|
Gb|-------------| Play This Once After The Third Time
Db|-------------| 
Ab|-00-00-00-00-|
Db|-00-00-00-00-|

Outro (Distorted, Palm Muted)

Eb|-----------------------------------|
Bb|-----------------------------------|
Gb|-----------------------------------| x3
Db|-----------------------------------| 
Ab|-00-00-00-00--11-11-11-11-33-33-33-|
Db|-00-00-00-00--11-11-11-11-33-33-33-|

Eb|---------------------------------------|
Bb|---------------------------------------|
Gb|---------------------------------------|Play This Once After The Third Time
Db|---------------------------------------| 
Ab|-00-00-00-00--11-11-11-11-33-33-33-0-0-|
Db|-00-00-00-00--11-11-11-11-33-33-33-0-0-|

This Tab Is Quite Confusing Even To Me
If You Have Any Questions, Email Me
Enjoy!
            
Submit corrections


        Sorry Youre Not A Winner lessons Hard to play? Try these video lessons and learn fast Sorry Youre Not A Winner lessons
        
↑ Back to top | Tablatures and chords for acoustic guitar and electric guitar, ukulele, drums are parodies/interpretations of the original songs. You may use it for private study, scholarship, research or language learning purposes only