» » »

Enter Shikari - Sorry Youre Not A Winner Tabs

Artists:  A B C D E F G H I J K L M N O P Q R S T U V W X Y Z # 

Sorry Youre Not A Winner Tabs

(ver. 1) Click to play this song!
Enter Shikari
 Rating:
4/5 (4 votes)

 Sorry Youre Not A Winner lessons Tabs too difficult? Try these video lessons and learn fast
 
                
Any Corrections Or Bridge Perfections:


(D-A-D-G-B-e)

Intro
||----------------|----------------|----------------|-----------------|
||----------------|-------------1--|-----1---1---1--|-----1---1----1--|
||----------------|----------------|-----2---2---2--|-----2---2----2--|
||-----2---3------|-----2---3------|-----3---3---3--|-----------------|
||-------------3--|----------------|---1---1---1----|-3-3---3---3-----|
||-0-0---0---0----|-0-0---0---0----|-0--------------|-----------------| 


|----------------|----------------|----------------|------------------||
|----------------|-------------1--|-----1---1---1--|------------------||
|----------------|----------------|-----2---2---2--|------------------||
|-----2---3------|-----2---3------|-----3---3---3--|------------------||
|-------------3--|----------------|---1---1---1----|------------------||
|-0-0---0---0----|-0-0---0---0----|-0--------------|------------------||
Play Intro Once...



Verse
||----------------|----------------|----------------|-----------------||
||----------------|-------------1--|-----1---1---1--|-----1---1----1--||
||----------------|----------------|-----2---2---2--|-----2---2----2--||
||-----2---3------|-----2---3------|-----3---3---3--|-----------------||
||-------------3--|----------------|---1---1---1----|-3-3---3---3-----||
||-0-0---0---0----|-0-0---0---0----|-0--------------|-----------------||
Play Verse Four Times...



Chorus
||----------------------------|---------------------------|
||--------1-----------1-----1-|-1-1-1-1---1-1-1-1---1-1---|
||--------2-----------2-----2-|-2-2-2-2---2-2-2-2---2-2---|
||--0-0-0---0-0-(0)-0---0-0---|-----------3-3-3-3---3-3---|
||--0-0-0---0-0-(0)-0---0-0---|-3-3-3-3---1-1-1-1---1-1---|
||--0-0-0---0-0-(0)-0---0-0---|---------------------------| 
PM  . . .   . .     .   . . 


|-----------------------------|--------------------------||
|---------1-----------1-----1-|-----------1-1-1-1---1-1--||
|---------2-----------2-----2-|-5-5-5-5---2-2-2-2---2-2--||
|---3-3-3---3-3-(3)-3---3-3---|-7-7-7-7---3-3-3-3---3-3--||
|---3-3-3---3-3-(3)-3---3-3---|-5-5-5-5---1-1-1-1---1-1--||
|---3-3-3---3-3-(3)-3---3-3---|-5-5-5-5------------------|| 
PM  . . .   . .     .   . . 

Play Chorus Twice...




Intro
||----------------|----------------|----------------|-----------------|
||----------------|-------------1--|-----1---1---1--|-----1---1----1--|
||----------------|----------------|-----2---2---2--|-----2---2----2--|
||-----2---3------|-----2---3------|-----3---3---3--|-----------------|
||-------------3--|----------------|---1---1---1----|-3-3---3---3-----|
||-0-0---0---0----|-0-0---0---0----|-0--------------|-----------------| 


|----------------|----------------|----------------|------------------||
|----------------|-------------1--|-----1---1---1--|------------------||
|----------------|----------------|-----2---2---2--|------------------||
|-----2---3------|-----2---3------|-----3---3---3--|------------------||
|-------------3--|----------------|---1---1---1----|------------------||
|-0-0---0---0----|-0-0---0---0----|-0--------------|------------------||
Play Intro Once...





Verse
||----------------|----------------|----------------|-----------------||
||----------------|-------------1--|-----1---1---1--|-----1---1----1--||
||----------------|----------------|-----2---2---2--|-----2---2----2--||
||-----2---3------|-----2---3------|-----3---3---3--|-----------------||
||-------------3--|----------------|---1---1---1----|-3-3---3---3-----||
||-0-0---0---0----|-0-0---0---0----|-0--------------|-----------------||
Play Verse Four Times...



Chorus
||----------------------------|---------------------------|
||--------1-----------1-----1-|-1-1-1-1---1-1-1-1---1-1---|
||--------2-----------2-----2-|-2-2-2-2---2-2-2-2---2-2---|
||--0-0-0---0-0-(0)-0---0-0---|-----------3-3-3-3---3-3---|
||--0-0-0---0-0-(0)-0---0-0---|-3-3-3-3---1-1-1-1---1-1---|
||--0-0-0---0-0-(0)-0---0-0---|---------------------------| 
PM  . . .   . .     .   . . 


|-----------------------------|--------------------------||
|---------1-----------1-----1-|-----------1-1-1-1---1-1--||
|---------2-----------2-----2-|-5-5-5-5---2-2-2-2---2-2--||
|---3-3-3---3-3-(3)-3---3-3---|-7-7-7-7---3-3-3-3---3-3--||
|---3-3-3---3-3-(3)-3---3-3---|-5-5-5-5---1-1-1-1---1-1--||
|---3-3-3---3-3-(3)-3---3-3---|-5-5-5-5------------------|| 
PM  . . .   . .     .   . . 

Play Chours Twice...


Pre-BreakDown
|----------------|----------------|
|----------------|----------------|
|----------------|----------------|
|--0-0-0-0-------|-(0)------------|
|--0-0-0-0-------|-(0)------------|
|--0-0-0-0-------|-(0)------------|
PM . . . 

Play This Section Once...



Break Down
|-----------------|---------------------|-----------------|-----------------|
|-----------------|---------------------|-----------------|-----------------|
|-7-7-7-7-7-7-7-7-|-9-9-9-9-10-10-10-10-|-3-3-3-3-3-3-3-3-|-5-5-5-5-5-5-5-5-|
|-7-7-7-7-7-7-7-7-|-9-9-9-9-10-10-10-10-|-3-3-3-3-3-3-3-3-|-5-5-5-5-5-5-5-5-|
|-5-5-5-5-5-5-5-5-|-7-7-7-7--8--8--8--8-|-1-1-1-1-1-1-1-1-|-3-3-3-3-3-3-3-3-|
|-----------------|---------------------|-----------------|-----------------|

Play About 8 Times, This Part Matches The Bass Which Comes In After The Second
Playing, But The Guitar Plays Higher Chords I THink, (To Be Figuered Out) But For 
Now This WIll Work....



Chorus
||----------------------------|---------------------------|
||--------1-----------1-----1-|-1-1-1-1---1-1-1-1---1-1---|
||--------2-----------2-----2-|-2-2-2-2---2-2-2-2---2-2---|
||--0-0-0---0-0-(0)-0---0-0---|-----------3-3-3-3---3-3---|
||--0-0-0---0-0-(0)-0---0-0---|-3-3-3-3---1-1-1-1---1-1---|
||--0-0-0---0-0-(0)-0---0-0---|---------------------------| 
PM  . . .   . .     .   . . 


|-----------------------------|--------------------------||
|---------1-----------1-----1-|-----------1-1-1-1---1-1--||
|---------2-----------2-----2-|-5-5-5-5---2-2-2-2---2-2--||
|---3-3-3---3-3-(3)-3---3-3---|-7-7-7-7---3-3-3-3---3-3--||
|---3-3-3---3-3-(3)-3---3-3---|-5-5-5-5---1-1-1-1---1-1--||
|---3-3-3---3-3-(3)-3---3-3---|-5-5-5-5------------------|| 
PM  . . .   . .     .   . . 

Play Chours Twice...



OUTRO
|----------------------------|
|--------1-----------1-----1-|
|--------2-----------2-----2-|
|--0-0-0---0-0-(0)-0---0-0---|
|--0-0-0---0-0-(0)-0---0-0---|
|--0-0-0---0-0-(0)-0---0-0---|
PM  . . .   . .     .   . .
Play This Four Times


|----------------------------|
|----------What?-------------|
|----------------------What?-|
|-00000000-------What?-------|
|-00000000-------------------|
|-00000000-------------------|




Then...
|----------------------------|---------------------|
|--------1-----------1-----1-|---------------------|
|--------2-----------2-----2-|---------------------|
|--0-0-0---0-0-(0)-0---0-0---|-00000000-0-0-0--0-0-|
|--0-0-0---0-0-(0)-0---0-0---|-00000000-0-0-0--0-0-|
|--0-0-0---0-0-(0)-0---0-0---|-00000000-0-0-0--0-0-|
PM . . .   . .     .   . .     ........ . . .  . . 

Play That A Few Times


Then
|--------------------|
|--------------------|
|--------------------|
|-0-0--0-0--0-0--0-0-|
|-0-0--0-0--0-0--0-0-|
|-0-0--0-0--0-0--0-0-|
Pm. .  . .  . .  . .


End On
|--------------------|
|--------------------|
|--------------------|
|-0-0--0-0--0-0------|
|-0-0--0-0--0-0------|
|-0-0--0-0--0-0------|
Pm. .  . .  . .  
            
Submit corrections


        Sorry Youre Not A Winner lessons Hard to play? Try these video lessons and learn fast Sorry Youre Not A Winner lessons
        
↑ Back to top | Tablatures and chords for acoustic guitar and electric guitar, ukulele, drums are parodies/interpretations of the original songs. You may use it for private study, scholarship, research or language learning purposes only