» » »

Enter Shikari - Juggernauts Bass

Artists:  A B C D E F G H I J K L M N O P Q R S T U V W X Y Z # 

Juggernauts Bass

(ver. 3) Click to play this song!
Enter Shikari
 Rating:
4/5 (4 votes)

 Juggernauts lessons Tabs too difficult? Try these video lessons and learn fast
 
                "-------------------------------------------------------------------------------
			     Juggernauts - Enter Shikari
-------------------------------------------------------------------------------


Tuning:STANDARD - - - (Chris plays in drop C# or lower usually,
but this tab is for people who don't want to tune down that awkwardly.
Also Ive done it as a 5-String tab, but if you don't have a 5 - string
just go up the octave or transpose onto the E String.


Now the parts below are done by sliding up and down after the chord
change has happened, listen to the track and you can hear the bass
doing it's own thing.

G|---------------------------------------------------------------------|
D|---------------------------------------------------------------------|
A|---------------------------------------------------------------------|
E|-66666666/88888/10101010\666-6666/10101010\88888\--------------------|
B|---------------------------------------------------------------------|

Above is the pattern played on the intro


G|---------------------------------------------------------------------|
D|---------------------------------------------------------------------|
A|---------------------------------------------------------------------|
E|-666-6666/888-8/10-10\66-66666/8h10-10\8-8\--------------------------|
B|---------------------------------------------------------------------|

Above is the pattern played on the main verses, except a little fill is added in after 2 
which looks like this below


G|---------------------------------------------------------------------|
D|---------------------------------------------------------------------|
A|-----------------------------------12-----10-------------------------|
E|-666-6666/888-8/10-10\66-66666/--12-----10---------------------------|
B|-------------------------------13-----11-----------------------------|


G|---------------------------------------------------------------------|
D|---------------------------------------------------------------------|
A|---------------------------------------------------------------------|
E|-666-6666-333/555/666-6666-333/555/----------------------------------|
B|---------------------------------------------------------------------|

The above is done when Chris's backing vocals kick in.

Just before Rou's spoken word part comes in Chris does another little fill, like below.


G|---------------------------------------------------------------------|
D|--------------------------------7------------------------------------|
A|---------------------------------------------------------------------|
E|-666-6666-333/555/666-6666-333/5-5/----------------------------------|
B|---------------------------------------------------------------------|

G|---------------------------------------------------------------------|
D|---5r---------7r------8r---------------------------------------------|
A|------------7r-------------------------------------------------------|
E|-3r-------5-----5r--6r---6-8\----------------------------------------|
B|---------------------------------------------------------------------|

The above part is Rou's spoken part and Chris's little bit (0:36), just softly play 
with the simple octaves here, add more bits in if you
want(r's mean hold the note)


G|---------------------------------------------------------------------|
D|---5r---------7r------8r---------------------------------------------|
A|------------7r-------------------------------------------------------|
E|-3r-------5-----5r--6r---6-5/6-865-----------------------------------|
B|---------------------------------------------------------------------|

Above is another little fill Chris adds in on this section

After this section, stop playing. Then come back in with the intro and verses like 
(2:02)

After a few of these it comes to a different variation in the verse (2:24)

G|-----------------------------------------------------------------|
D|-----------------------------------------------------------------|
A|-----------------------------------------------------------------|
E|-66-66-66----33-55-66-66-66----33-55-----------------------------|
B|-----------------------------------------------------------------|


Below happens at 2:38

G|-----------------------------------------------------------------|
D|-----------------------------------------------------------------|
A|-----------------------------------------------------------------|
E|-66-66-66-66666-6656-55-55-55-5555555535/------------------------|
B|-----------------------------------------------------------------|

Variation of the above happens a few times like below


G|-----------------------------------------------------------------|
D|-----------------------------------------------------------------|
A|------------------------------333/5555---------------------------|
E|-66-66-66-66666-6656-55-55-555-----------------------------------|
B|-----------------------------------------------------------------|


Do that until 3:06 when the verse kicks again like before. Then do the intro again at 
and stop after that.


And your done!


| /  slide up
| \  slide down
| h  hammer-on
| p  pull-off
| ~  vibrato
| +  harmonic
| x  Mute note
| r  hold the note
===============================================================================
"            
Submit corrections


        Juggernauts lessons Hard to play? Try these video lessons and learn fast Juggernauts lessons
        
↑ Back to top | Tablatures and chords for acoustic guitar and electric guitar, ukulele, drums are parodies/interpretations of the original songs. You may use it for private study, scholarship, research or language learning purposes only