» » »

Enter Shikari - Juggernauts Bass

Artists:  A B C D E F G H I J K L M N O P Q R S T U V W X Y Z # 

Juggernauts Bass

(ver. 1) Click to play this song!
Enter Shikari
 Rating:
4/5 (4 votes)

 Juggernauts lessons Tabs too difficult? Try these video lessons and learn fast
 
                "I've never found tabs to this song, EVER. So why not make one?

Intro:

G |---------------------------------------------------------------|
D |---------------------------------------------------------------|
A |1-1-1-1-1-1-1-1-/3-3-3-3-3-5-5\-1-1--1-1-1-1/-5-5-5-5-5-3-3-1--|
E |---------------------------------------------------------------|

(And i know that we've still got time!)

G |-----------------------------------------------------------------------|
D |-----------------------------------------------------------------------|
A |1-1-1-1-1-1-1-1/3-3-3-3-3-5-5\-1-1--1-1-1-1/-5-5-5-5-3-3-5-1--1-1-1-1--|
E |-----------------------------------------------------------------------|

G |-------------------------------------------------------------|
D |--------------------------------5-8\--3-7\-------------------|
A |/2-2-2-2--5-5\-1-1--1-1-1-1-1/-5-----3-----------------------|
E |-------------------------------------------------------------|

(Crushing all in his path..)

G |-----------------------------------------------------------------|
D |-----------------------------------------------------------------|
A |1-1-1-1-1-1-1-1-----------------1-1-1-1-1-1-1-1------------------|
E |----------------3-3-3-3-5-5-5-5-----------------3-3-3-3-5-5-5-5--| (x4)

(Now don't get me wrong, i love what you've done with the place...)

G |--------------------------------------------------------|
D |--------------------------------------------------------|
A |-----0~~~~-1~~~~-1/3------------------------------------|
E |3~~~~---------------------------------------------------| (x6)

(SWITCH!!!)

G |---------------------------------------------------------------|
D |---------------------------------------------------------------|
A |1-1-1-1-1-1-1-1-/3-3-3-3-3-5-5\-1-1--1-1-1-1/-5-5-5-5-5-3-3-1--|
E |---------------------------------------------------------------|

(And i know that we've still got time!)

G |-----------------------------------------------------------------------|
D |-----------------------------------------------------------------------|
A |1-1-1-1-1-1-1-1/3-3-3-3-3-5-5\-1-1--1-1-1-1/-5-5-5-5-3-3-5-1--1-1-1-1--|
E |-----------------------------------------------------------------------|

G |-------------------------------------------------------------|
D |--------------------------------5-8\--3-7\-------------------|
A |/2-2-2-2--5-5\-1-1--1-1-1-1-1/-5-----3-----------------------|
E |-------------------------------------------------------------|

(HERE COMES ANOTHER JUG-GER-NAUT!)

G |---------------------------------------------------------------------------|
D |---------------------------------------------------------------------------|
A |1-1-1---------1-1-1---------1-1-1--1-1-1-1-1-1-1-0-1-0-0-0--0-0-0-0-0-0-0--|
E |------333-555-------333-555------------------------------------------------|

G |------------------------------------------------------|
D |------------------------------------------------------|
A |--0-1-1-1--1-1-1-1-1-1-1-0-1-0-0-0--3-3-5-5-----------|
E |3-----------------------------------------------------| (x2)

(THOU SHALL NOT PASS!)

G |---------------------------------------------------------------|
D |---------------------------------------------------------------|
A |1-1-1-1-1-1-1-1-/3-3-3-3-3-5-5\-1-1--1-1-1-1/-5-5-5-5-5-3-3-1--|
E |---------------------------------------------------------------|

(And i know that we've still got time...)

G |-----------------------------------------------------------------------|
D |-----------------------------------------------------------------------|
A |1-1-1-1-1-1-1-1/3-3-3-3-3-5-5\-1-1--1-1-1-1/-5-5-5-5-3-3-5-1--1-1-1-1--|
E |-----------------------------------------------------------------------|

G |-------------------------------------------------------------|
D |--------------------------------5-8\--3-7\-------------------|
A |/2-2-2-2--5-5\-1-1--1-1-1-1-1/-5-----3-----------------------|
E |-------------------------------------------------------------|

(Crushing all in his path...)

G |-----------------------------------------------------------------|
D |-----------------------------------------------------------------|
A |1-1-1-1-1-1-1-1-----------------1-1-1-1-1-1-1-1------------------|
E |----------------3-3-3-3-5-5-5-5-----------------3-3-3-3-5-5-5-5--| (x4)

(And i know that we've still got time...)

G |-----------------------------------------------------------------------|
D |-----------------------------------------------------------------------|
A |1-1-1-1-1-1-1-1/3-3-3-3-3-5-5\-1-1--1-1-1-1/-5-5-5-5-3-3-5-1--1-1-1-1--|
E |-----------------------------------------------------------------------|

G |-------------------------------------------------------------|
D |--------------------------------5-8\--3-7\-------------------|
A |/2-2-2-2--5-5\-1-1--1-1-1-1-1/-5-----3-----------------------|
E |-------------------------------------------------------------|

(HERE COMES ANOTHER JUG-GER-NAUT!)

G |---------------------------------------------------------------|
D |---------------------------------------------------------------|
A |1-1-1-1-1-1-1-1-/3-3-3-3-3-5-5\-1-1--1-1-1-1/-5-5-5-5-5-3-3-1--|
E |---------------------------------------------------------------|

End.

Hope this helped out. Please comment and rate. 

(Told you i'd do it Q!)
"            
Submit corrections


        Juggernauts lessons Hard to play? Try these video lessons and learn fast Juggernauts lessons
        
↑ Back to top | Tablatures and chords for acoustic guitar and electric guitar, ukulele, drums are parodies/interpretations of the original songs. You may use it for private study, scholarship, research or language learning purposes only