» » »

Enter Shikari - Juggernauts Tabs

Artists:  A B C D E F G H I J K L M N O P Q R S T U V W X Y Z # 

Juggernauts Tabs

(ver. 2) Click to play this song!
Enter Shikari
 Rating:
4/5 (4 votes)

 Juggernauts lessons Tabs too difficult? Try these video lessons and learn fast
 
                "Enter Shikari
Common Dreads (2009)

Tuning Drop C



Intro

D-----------------------------------|----------------------------------|
A-----------------------------------|----------------------------------|
F-12-5-11-5-12-5-16-5-12-5-11-5-12-9|12-2-11-2-12-2-16-4-12-4-11-5-16--| X2
C-----------------------------------|----------------------------------|
G-----------------------------------|----------------------------------|
C-----------------------------------|----------------------------------|

And I Know That We Still Got Time...

D-3-3-3-3-3-3-3-3|-5-5-5-5-5-5--7-7|-3-3-3-3-3-3-3-3|-7-7-7-7-7-7--5-5|
A-0-0-0-0-0-0-0-0|-0-0-0-0-0-0--0-0|-0-0-0-0-0-0-0-0|-0-0-0-0-0-0--0-0|
D-0-0-0-0-0-0-0-0|-0-0-0-0-0-0--0-0|-0-0-0-0-0-0-0-0|-0-0-0-0-0-0--0-0|X4
C-0-0-0-0-0-0-0-0|-0-0-0-0-0-0--0-0|-0-0-0-0-0-0-0-0|-0-0-0-0-0-0--0-0|
G-3-3-3-3-3-3-3-3|-5-5-5-5-5-5--7-7|-3-3-3-3-3-3-3-3|-7-7-7-7-7-7--5-5|
C-x-x-x-x-x-x-x-x|-x-x-x-x-x-x--x-x|-x-x-x-x-x-x-x-x|-x-x-x-x-x-x--x-x|


Now Dont Get Me Wrong I Love what You've done to the place...

Clean (Listen for picking rhythem)

D----------------------------|
A--------------------3-------|
F-------4------4-------------| Listen to the track
C---2-----2------2-----2-----|
G-3---3-----3------3------3--|
C----------------------------|

The Bit Before SWITCH!!!!

D--------------------|
A-12-----------------|
F----12------12------|
C--------------------|
G----------12--------|
C--------------------|
Harmonics

SWITCH!!!

D-----------------------------------|----------------------------------|
A-----------------------------------|----------------------------------|
F-12-5-11-5-12-5-16-5-12-5-11-5-12-9|12-2-11-2-12-2-16-4-12-4-11-5-16--| X2
C-----------------------------------|----------------------------------|
G-----------------------------------|----------------------------------|
C-----------------------------------|----------------------------------|

And I Know That We Still Got Time...

D-3-3-3-3-3-3-3-3|-5-5-5-5-5-5--7-7|-3-3-3-3-3-3-3-3|-7-7-7-7-7-7--5-5|
A-0-0-0-0-0-0-0-0|-0-0-0-0-0-0--0-0|-0-0-0-0-0-0-0-0|-0-0-0-0-0-0--0-0|
F-0-0-0-0-0-0-0-0|-0-0-0-0-0-0--0-0|-0-0-0-0-0-0-0-0|-0-0-0-0-0-0--0-0|X2
C-0-0-0-0-0-0-0-0|-0-0-0-0-0-0--0-0|-0-0-0-0-0-0-0-0|-0-0-0-0-0-0--0-0|
G-3-3-3-3-3-3-3-3|-5-5-5-5-5-5--7-7|-3-3-3-3-3-3-3-3|-7-7-7-7-7-7--5-5|
C-x-x-x-x-x-x-x-x|-x-x-x-x-x-x--x-x|-x-x-x-x-x-x-x-x|-x-x-x-x-x-x--x-x|

CRUSHING ALL IN ITS PATH!

D-3--3--3-----|-333-3--3---333-3--3|
A-0--0--0-----|-000-0--0---000-0--0|
F-0--0--0-----|-000-0--0---000-0--0| X2
C-0--0--0-----|-000-0--0---000-0--0|
G-3--3--3-----|-000-0--0---222-2--2|
C-------------|--------------------|

WHAT THE HELL WILL HAPPEN NOW!?!?

D-3--3--3------|-3--3--3--------|-3--3--3------|-3--3--3-------|
A-0--0--0------|-0--0--0--------|-0--0--0------|-0--0--0-------|
D-0--0--0------|-0--0--0--------|-0--0--0------|-0--0--0-------|X2
C-0--0--0------|-0--0--0--------|-0--0--0------|-0--0--0---0--2|
G-3--3--3------|-2--2--2-----0-2|-3--3--3------|-2--2--2---0--2|
C--------------|----------------|--------------|-----------0--2|


THOU SHALL NOT PASS!!!

D-----------------------------------|----------------------------------|
A-----------------------------------|----------------------------------|
F-12-5-11-5-12-5-16-5-12-5-11-5-12-9|12-2-11-2-12-2-16-4-12-4-11-5-16--| X2
C-----------------------------------|----------------------------------|
G-----------------------------------|----------------------------------|
C-----------------------------------|----------------------------------|

And I Know That We Still Got Time...

D-3-3-3-3-3-3-3-3|-5-5-5-5-5-5--7-7|-3-3-3-3-3-3-3-3|-7-7-7-7-7-7--5-5|
A-0-0-0-0-0-0-0-0|-0-0-0-0-0-0--0-0|-0-0-0-0-0-0-0-0|-0-0-0-0-0-0--0-0|
F-0-0-0-0-0-0-0-0|-0-0-0-0-0-0--0-0|-0-0-0-0-0-0-0-0|-0-0-0-0-0-0--0-0|X8
C-0-0-0-0-0-0-0-0|-0-0-0-0-0-0--0-0|-0-0-0-0-0-0-0-0|-0-0-0-0-0-0--0-0|
G-3-3-3-3-3-3-3-3|-5-5-5-5-5-5--7-7|-3-3-3-3-3-3-3-3|-7-7-7-7-7-7--5-5|
C-x-x-x-x-x-x-x-x|-x-x-x-x-x-x--x-x|-x-x-x-x-x-x-x-x|-x-x-x-x-x-x--x-x|

HERE COMES ANOTHER JUGGERNAUT!!!

D-----------------------------------|----------------------------------|
A-----------------------------------|----------------------------------|
F-12-5-11-5-12-5-16-5-12-5-11-5-12-9|12-2-11-2-12-2-16-4-12-4-11-5-16--| X2
C-----------------------------------|----------------------------------|
G-----------------------------------|----------------------------------|
C-----------------------------------|----------------------------------|

Outro/ And I Know That We Still Got Time...


D-3-3-3-3-3-3-3-3|-5-5-5-5-5-5--7-7|-3-3-3-3-3-3-3-3|-7-7-7-7-7-7--5-5|
A-0-0-0-0-0-0-0-0|-0-0-0-0-0-0--0-0|-0-0-0-0-0-0-0-0|-0-0-0-0-0-0--0-0|
F-0-0-0-0-0-0-0-0|-0-0-0-0-0-0--0-0|-0-0-0-0-0-0-0-0|-0-0-0-0-0-0--0-0|X4
C-0-0-0-0-0-0-0-0|-0-0-0-0-0-0--0-0|-0-0-0-0-0-0-0-0|-0-0-0-0-0-0--0-0|
G-3-3-3-3-3-3-3-3|-5-5-5-5-5-5--7-7|-3-3-3-3-3-3-3-3|-7-7-7-7-7-7--5-5|
C-x-x-x-x-x-x-x-x|-x-x-x-x-x-x--x-x|-x-x-x-x-x-x-x-x|-x-x-x-x-x-x--x-x|

Just Strum A Bit Slower
"            
Submit corrections


        Juggernauts lessons Hard to play? Try these video lessons and learn fast Juggernauts lessons
        
↑ Back to top | Tablatures and chords for acoustic guitar and electric guitar, ukulele, drums are parodies/interpretations of the original songs. You may use it for private study, scholarship, research or language learning purposes only