Home » E » Enter Shikari »

Enter Shikari - Jonny Sniper Bass

Artists:  A B C D E F G H I J K L M N O P Q R S T U V W X Y Z # 

Jonny Sniper Bass

(ver. 2) Click to play this song!
Enter Shikari
 Rating:
4/5 (4 votes)
                Hey! Here is my tab for Jonny Sniper. This is the album version. The tuning is uncommon 
it works. I'm not sure about the amount of times for the outro because of the keyboards 
just keep playing until you think the bass stops playing. Hope you like it!! Please rate. :)

Intro
E#|-----------|
C#|-----------|
F#|-----------|
C#|10-X36-----|
  ^^^^10's not 1's and 0's

Chorus
E#|----------------------------------------------------|
C#|----------------------------------------------------|
F#|----------------------------------------------------|
C#|-10~-1010--12~-1212-14~-1414-15~-1515---------------|

E#|----------------------------------------------------|
C#|----------------------------------------------------|
F#|----------------------------------------------------|
C#|-1010101010101010-1010-12~-1212-14~-1414-15~-1515---|
    ^^^very fast^^^^

Chorus Variation Pt. 1
E#|---------------------------|
C#|---------------------------|
F#|---------------------------|
C#|-10~-1010/0~-00-2~-22-3~-33|

Chorus Variation Pt. 2
E#|-----------------------------------------|
C#|-----------------------------------------|
F#|-----------------------------------------|
C#|-1010101010101010-1010-0~-00-2~-22-3~-33-|
    ^^^very fast^^^^

Pre-Verse
E#|----|
C#|----|
F#|----|
C#|-10-|


Verse
E#|----------------------------------------|
C#|----------------------------------------|
F#|-----------9109---------------9109------|
C#|-14/10-10//------12109910-10//-----1210-|

Verse Cont.
E#|-------------7/9-11--------------9/11-9-|
C#|----------------------------------------|
F#|-10-10//-9109-------10-10//-9109--------|
C#|----------------------------------------|


Pre-Chorus/Bridge
E#|-------------------|
C#|-------------------|
F#|-------------------|
C#|-33-55-55-77-55-55-|

Pre-Chorus Variation
E#|-------------------------------------|
C#|-------------------------------------|
F#|-------------------------------------|
C#|-333333-5555555555-777777-5555555555-|

Pre-Outro
E#|------|
C#|------|
F#|-0/5~-|
C#|------|


Outro
E#|------------------|
C#|------------------|
F#|-5-5-5~-2-2-2-----|
C#|--------------3-3-|


Song Order:
Intro X1
Chorus X1
Pre-Verse X1
Verse X2
Pre-Chorus/Bridge X1
Pre-Chorus Varation X1
Chorus X1
Verse X2
Pre-Chorus/Bridge X1
Pre-Chorus Varation X1
Chorus Variation Pt. 1 X1
Chorus Variation Pt. 2 X3
Pre-Chorus/Bridge X1
Pre-Chorus Varation X1
Pre-Chorus/Bridge X2
Pre-Outro X1
Outro X?
            
Submit corrections

↑ Back to top | Tablatures and chords for acoustic guitar and electric guitar, ukulele, drums are parodies/interpretations of the original songs. You may use it for private study, scholarship, research or language learning purposes only