Home » E » Enter Shikari »

Enter Shikari - Jonny Sniper Bass

Artists:  A B C D E F G H I J K L M N O P Q R S T U V W X Y Z # 

Jonny Sniper Bass

(ver. 1) Click to play this song!
Enter Shikari
 Rating:
4/5 (4 votes)
                awesome song. timing in verse and bridge you have to look out for. saw them live and i 
he's got completely different tuning but nobody can be screwed to tune each string.
If you ever wondered they told us on stage jonny sniper is some guy who taught them sex 
at primary school

intro
G|---------------------------------------------|
D|---------------------------------------------|
A|---------------------------------------------|
E|77777777777777777777777777777777-------------|
chorus
G|---------------------------------------------|
D|---------------------------------------------|
A|---------------------------------------------|
E|-7~-77-9~-99-11~-1111-12~-1212---------------|

G|---------------------------------------------|
D|---------------------------------------------|
A|---------------------------------------------|
E|-[777777777]-9~-99-11~-1111-12~-1212---------|
  7s played super fast
|G|-----|
|D|-----|this only occurs first time before piano
|A|-----|
|E|-7*--|
verse
G|-------------------------------------6-8----------6/8-6--| x2
D|---------------------------------------------------------|
A|---------676-----------676---7-7~-676----7-7~-676--------|
E|-11/7-7~----97667-7-7~----97-----------------------------|
bridge + solo
G|-------------------| repeat and shiz 'solo' may be a bit measly oh well
D|-------------------|
A|-------------------|
E|-00-00-22-44-44-22-|
ending
G|---------------------------------------------|
D|---------------------------------------------|
A|---------------------------------------------|
E|-777~--44-4p0-0------------------------------|
            
Submit corrections

↑ Back to top | Tablatures and chords for acoustic guitar and electric guitar, ukulele, drums are parodies/interpretations of the original songs. You may use it for private study, scholarship, research or language learning purposes only