» » »

Enter Shikari - Jonny Sniper Tabs

Artists:  A B C D E F G H I J K L M N O P Q R S T U V W X Y Z # 

Jonny Sniper Tabs

(ver. 2) Click to play this song!
Enter Shikari
 Rating:
4/5 (4 votes)

 Jonny Sniper lessons Tabs too difficult? Try these video lessons and learn fast
 
                -----------------------------------------------------------------------------
                             JONNY SNIPER - Enter Shikari
-----------------------------------------------------------------------------



Tuning: D# A# F# C# G# C#

Intro

e|-----------------------------------------------------|
B|-----------------------------------------------------|
G|----5---5-5-----7---7-7-----9---9-9-----10---10-10---|
D|-----------------------------------------------------|
A|----3---3-3-----5---5-5-----7---7-7------8----8--8---|
E|-----------------------------------------------------|

e|--------------------------------------------------------------------------|
B|--------------------------------------------------------------------------|
G|---5-5-5-5-5-5-5-5---5---5----7---7-7-----9---9-9----10---10-10-----5-----|
D|--------------------------------------------------------------------------|
A|---3-3-3-3-3-3-3-3---3---3----5---5-5-----7---7-7-----8----8--8-----3-----|
E|--------------------------------------------------------------------------|

Verse:

     T  T  T   T  T   T  T  T   T  T  T   T  T   T  T  T
e|---------------------------------------------------------------|
B|------8--17-----15-----8--15-----8--15-----13-----8--13--------|
G|---5---------5------5---------5---------5------5---------------|
D|---------------------------------------------------------------| x8
A|---------------------------------------------------------------|
E|---------------------------------------------------------------|

Pre-Chorus:

     PM          PM        PM       PM          PM              AH
e|-------------------------------------------------------------------|
B|-------------------------------------------------------------------|
G|--------5---5-------4-4-------4--------5---5-------4---4-------4---|
D|---3-3--5---5--5-5--5-5--5-5--5---7-7--5---5--5-5--5---5--3/5------|
A|---3-3---------5-5-------5-5------7-7---------5-5------------------|
E|---3-3---------5-5-------5-5------7-7---------5-5------------------|


     PM          PM        PM       PM          PM         PM          
e|-------------------------------------------------------------------|
B|-------------------------------------------------------------------|
G|--------5---5-------4-4-------4--------5---5-------4---4-----4-----|
D|---3-3--5---5--5-5--5-5--5-5--5---7-7--5---5--5-5--5---5--5--5-----|
A|---3-3---------5-5-------5-5------7-7---------5-5---------5--------|
E|---3-3---------5-5-------5-5------7-7---------5-5---------5--------|


Chorus

e|-----------------------------------------------------|
B|-----------------------------------------------------|
G|----5---5-5-----7---7-7-----9---9-9-----10---10-10---|
D|-----------------------------------------------------|
A|----3---3-3-----5---5-5-----7---7-7------8----8--8---|
E|-----------------------------------------------------|

e|-------------------------------------------------------------------------|
B|-------------------------------------------------------------------------|
G|---5-5-5-5-5-5-5-5---5---5----7---7-7-----9---9-9----10---10-10----------|
D|-------------------------------------------------------------------------|
A|---3-3-3-3-3-3-3-3---3---3----5---5-5-----7---7-7-----8----8--8----------|
E|-------------------------------------------------------------------------|

Verse 2:

     T  T  T   T  T   T  T  T   T  T  T   T  T   T  T  T
e|---------------------------------------------------------------|
B|------8--17-----15-----8--15-----8--15-----13-----8--13--------|
G|---5---------5------5---------5---------5------5---------------|
D|---------------------------------------------------------------| x8
A|---------------------------------------------------------------|
E|---------------------------------------------------------------|

Pre-Chorus 2:

     PM          PM        PM       PM          PM              AH
e|-------------------------------------------------------------------|
B|-------------------------------------------------------------------|
G|--------5---5-------4-4-------4--------5---5-------4---4-------4---|
D|---3-3--5---5--5-5--5-5--5-5--5---7-7--5---5--5-5--5---5--3/5------|
A|---3-3---------5-5-------5-5------7-7---------5-5------------------|
E|---3-3---------5-5-------5-5------7-7---------5-5------------------|



     PM          PM        PM       PM          PM         PM          
e|-------------------------------------------------------------------|
B|-------------------------------------------------------------------|
G|--------5---5-------4-4-------4--------5---5-------4---4-----4-----|
D|---3-3--5---5--5-5--5-5--5-5--5---7-7--5---5--5-5--5---5--5--5-----|
A|---3-3---------5-5-------5-5------7-7---------5-5---------5--------|
E|---3-3---------5-5-------5-5------7-7---------5-5---------5--------|

Chorus 2:

e|-----------------------------------------------------|
B|-----------------------------------------------------|
G|----5---5-5-----7---7-7-----9---9-9-----10---10-10---|
D|-----------------------------------------------------|
A|----3---3-3-----5---5-5-----7---7-7------8----8--8---|
E|-----------------------------------------------------|


e|-------------------------------------------------------------------------|
B|-------------------------------------------------------------------------|
G|---5-5-5-5-5-5-5-5---5---5----7---7-7-----9---9-9----10---10-10----------|
D|-------------------------------------------------------------------------|
A|---3-3-3-3-3-3-3-3---3---3----5---5-5-----7---7-7-----8----8--8----------|
E|-------------------------------------------------------------------------|

e|-------------------------------------------------------------------------|
B|-------------------------------------------------------------------------|
G|---5-5-5-5-5-5-5-5---5---5----7---7-7-----9---9-9----10---10-10----------|
D|-------------------------------------------------------------------------|
A|---3-3-3-3-3-3-3-3---3---3----5---5-5-----7---7-7-----8----8--8----------|
E|-------------------------------------------------------------------------|


                                                                   AH
e|-------------------------------------------------------------------------|
B|-------------------------------------------------------------------------|
G|---5-5-5-5-5-5-5-5---5---5----7---7-7-----9---9-9----10---10-10--12------|
D|-------------------------------------------------------------------------|
A|---3-3-3-3-3-3-3-3---3---3----5---5-5-----7---7-7-----8----8--8----------|
E|-------------------------------------------------------------------------|

Pre-chorus

     PM          PM        PM       PM          PM              AH
e|-------------------------------------------------------------------|
B|-------------------------------------------------------------------|
G|--------5---5-------4-4-------4--------5---5-------4---4-------4---|
D|---3-3--5---5--5-5--5-5--5-5--5---7-7--5---5--5-5--5---5--3/5------|x3
A|---3-3---------5-5-------5-5------7-7---------5-5------------------|
E|---3-3---------5-5-------5-5------7-7---------5-5------------------|

Pre-chorus 2:


     PM          PM        PM       PM          PM         PM          
e|-------------------------------------------------------------------|
B|-------------------------------------------------------------------|
G|--------5---5-------4-4-------4--------5---5-------4---4-----4-----|
D|---3-3--5---5--5-5--5-5--5-5--5---7-7--5---5--5-5--5---5--5--5-----|
A|---3-3---------5-5-------5-5------7-7---------5-5---------5--------|
E|---3-3---------5-5-------5-5------7-7---------5-5---------5--------|

Outtro:

e|-------------------------------------------------------|
B|-------------------------------------------------------|
G|----------------------9----9---9-----------------------|
D|--10----10---10-10----7----7---7------3---3------10----|
A|--10----10---10-10----7----7---7------3---3------------|
E|--10----10---10-10----7----7---7--------3---3----10----|

e|-------------------------------------------------|
B|-------------------------------------------------|
G|----------------------9----9---9-----------------|
D|--10----10---10-10----7----7---7----3---3--------|x4
A|--10----10---10-10----7----7---7----3---3--------|
E|--10----10---10-10----7----7---7----3---3--------|
            
Submit corrections


        Jonny Sniper lessons Hard to play? Try these video lessons and learn fast Jonny Sniper lessons
        
↑ Back to top | Tablatures and chords for acoustic guitar and electric guitar, ukulele, drums are parodies/interpretations of the original songs. You may use it for private study, scholarship, research or language learning purposes only