» » »

Enrique Iglesias - Bailando Tabs

Artists:  A B C D E F G H I J K L M N O P Q R S T U V W X Y Z # 

Bailando Tabs

(ver. 3) Click to play this song!
Enrique Iglesias
 Rating:
4/5 (4 votes)

 Bailando  lessons Tabs too difficult? Try these video lessons and learn fast
 
                e|-----0-2-2h3-2-0-3----2-3p2p0----0-2-2h3-2-0-3----0--------3-2-1/2---|
B|-----------------------------------------------333-33-0-33-----------|
G|---------------------------------------------------------------------|
D|---------------------------------------------------------------------|
A|---------------------------------------------------------------------|
E|---------------------------------------------------------------------|

e|--3--5--7--5--3-/7---5-5\3-/7--5-5/3-3----8-8-8-10-8-10p8---7-7------|
B|--5--7--8--7--5-/8---7-7\5-/8--7-7/5-5----8-8-8-8--8-8------8-8-3-3--|
G|----------------------------------------------------------------4-4--|
D|---------------------------------------------------------------------|
A|---------------------------------------------------------------------|
E|---------------------------------------------------------------------|

e|--8-8-7-7-5-5--3-3/2-2~----------------------------------------------|
B|--8-8-8-8-7-7--5-5/3-3~----------------------------------------------|
G|---------------------------------------------------------------------|
D|---------------------------------------------------------------------|
A|---------------------------------------------------------------------|
E|---------------------------------------------------------------------|

            
Submit corrections


        Bailando  lessons Hard to play? Try these video lessons and learn fast Bailando  lessons
        
↑ Back to top | Tablatures and chords for acoustic guitar and electric guitar, ukulele, drums are parodies/interpretations of the original songs. You may use it for private study, scholarship, research or language learning purposes only