» » »

Enrique Iglesias - Tired Of Being Sorry Tabs

Artists:  A B C D E F G H I J K L M N O P Q R S T U V W X Y Z # 

Tired Of Being Sorry Tabs

(ver. 1) Click to play this song!
Enrique Iglesias
 Rating:
4/5 (4 votes)

 Tired Of Being Sorry lessons Tabs too difficult? Try these video lessons and learn fast
 
                (Intro)
-3---3---3-4-3----------------------------------|
---------------6-4-4/6--------------------------|
------------------------------------------------|
------------------------------------------------|
------------------------------------------------|
------------------------------------------------|

-3--3--3--3-h4----------------------------------|
---------------6--4-----------------------------|
--------------------5---------------------------|
------------------------------------------------|
------------------------------------------------|
------------------------------------------------|


--8/6—-6/4--4-----------------------------------|
-9-/8--8/6--6---------3--h4-h6-h4-----3h4h3-----|
------------------------------------------------|
------------------------------------------------|
------------------------------------------------|
------------------------------------------------|

i am hossam and this is my first, its a peace of cake hope u like it ;)
            
Submit corrections


        Tired Of Being Sorry lessons Hard to play? Try these video lessons and learn fast Tired Of Being Sorry lessons
        
↑ Back to top | Tablatures and chords for acoustic guitar and electric guitar, ukulele, drums are parodies/interpretations of the original songs. You may use it for private study, scholarship, research or language learning purposes only