» » »

Enrique Iglesias - Bailando Tabs

Artists:  A B C D E F G H I J K L M N O P Q R S T U V W X Y Z # 

Bailando Tabs

(ver. 2) Click to play this song!
Enrique Iglesias
 Rating:
4/5 (4 votes)

 Bailando  lessons Tabs too difficult? Try these video lessons and learn fast
 
                Tuning: Standard (EADGBE)

e|---------------------------------------------------------------------------|
B|---7-7h8-7---8------7--8p7-----------7-7h8-7---8-------------------8-7-6h7-|
G|-9---------9---------------9-------9---------9---7-7-7-9-7-7---7-7---------|
D|-------------------------------------------------------------9-------------|
A|---------------------------------------------------------------------------|
E|---------------------------------------------------------------------------|

e|-------/7--------/7--------------/7-----------------8--8--8--10--8--10p8---|
B|-8--10-/8--10--8-/8----10--10--8-/7----10---8--8----8--8--8--8---8--8------|
G|-9--11-----11--9-------10--10--9-------11---9--9---------------------------|
D|---------------------------------------------------------------------------|
A|---------------------------------------------------------------------------|
E|---------------------------------------------------------------------------|

e|-7--7-----------8--8--7--7-------------------------------------------------|
B|-8--8-----------8--8--8--8--10--10----8--8/7--7----------------------------|
G|-------7--9-----------------11--11----9--9/7--7----------------------------|
D|-------9--9----------------------------------------------------------------|
A|---------------------------------------------------------------------------|
E|---------------------------------------------------------------------------|
            
Submit corrections


        Bailando  lessons Hard to play? Try these video lessons and learn fast Bailando  lessons
        
↑ Back to top | Tablatures and chords for acoustic guitar and electric guitar, ukulele, drums are parodies/interpretations of the original songs. You may use it for private study, scholarship, research or language learning purposes only