» » »

Enrique Iglesias - Bailando Tabs

Artists:  A B C D E F G H I J K L M N O P Q R S T U V W X Y Z # 

Bailando Tabs

(ver. 1) Click to play this song!
Enrique Iglesias
 Rating:
4/5 (4 votes)

 Bailando  lessons Tabs too difficult? Try these video lessons and learn fast
 
                Intro

e ---0-2-3-2-0-3--2-3h2h0---0-2-3-2-0-3-------0-----------3-2-1h2--| 
B ---------------------------------------333------330--33----------|
G -----------------------------------------------------------------| 
D -----------------------------------------------------------------|
A -----------------------------------------------------------------| 
E -----------------------------------------------------------------| 

e ---3-5-7-5-3-7-55-3-7-5-33-8888-10-88-77----88-77-55-33-22--|
B -----------------------------------------33-----------------|
G ------------------------------------------------------------|
D ------------------------------------------------------------|
A ------------------------------------------------------------|
E ------------------------------------------------------------|


the rest of song has the same chors until the end

   Em            C            G           D

e -----|     e -----|     e --3--|     e --2--|
B -----|     B --1--|     B --3--|     B --3--|
G -----|     G -----|     G -----|     G --2--|
D --2--|     D --2--|     D -----|     D --x--|
A --2--|     A --3--|     A --2--|     A --x--|
E -----|     E --x--|     E --3--|     E --x--|

            
Submit corrections


        Bailando  lessons Hard to play? Try these video lessons and learn fast Bailando  lessons
        
↑ Back to top | Tablatures and chords for acoustic guitar and electric guitar, ukulele, drums are parodies/interpretations of the original songs. You may use it for private study, scholarship, research or language learning purposes only