Home » E » Empire Of The Sun »

Empire Of The Sun - Walking On A Dream Tabs

Artists:  A B C D E F G H I J K L M N O P Q R S T U V W X Y Z # 

Walking On A Dream Tabs

(ver. 2) Click to play this song!
Empire Of The Sun
Empire of the Sun - Walking on a Dream (Walking on a Dream 2008)

Don't think anyone has got this right yet.

Its pretty much D, F#m, F#m, E all the way thru.

Intro - its obviously played on synth but these are the notes
				    
e|--2--0--------|  		
B|--------2--0--|  		
G|--------------|  		
D|--------------|  x4		 
A|--------------|  		
E|--------------|  		

I like to play Fig1 thru the verse and bridge, and Fig2 through the chorus

Fig1				
    D	F#m  F#m   E		    D	F#m  F#m   E	
e|--------------------|		e|--2----2----2----0--|
B|--3----2----2----0--|		B|--3----2----2----0--|
G|--2----2----2----1--| 	         G|--2----2----2----1--|	
D|--0-----------------|     	D|--0----4----4----2--| 	
A|--------------------|		A|-------4----4----2--|
E|-------2----2----0--|		E|-------2----2----0--|

hope this helps.


Cheers, 
Jamie
            
Submit corrections

↑ Back to top | Tablatures and chords for acoustic guitar and electric guitar, ukulele, drums are parodies/interpretations of the original songs. You may use it for private study, scholarship, research or language learning purposes only