Home » E » Empire Of The Sun »

Empire Of The Sun - Standing On The Shore Bass

Artists:  A B C D E F G H I J K L M N O P Q R S T U V W X Y Z # 

Standing On The Shore Bass

(ver. 2) Click to play this song!
Empire Of The Sun
-----------------------------------------------------------------------------
                 Standing On The Shore - Empire Of The Sun
-----------------------------------------------------------------------------


Tuning: EADG

Verse

(0:15)

G|----------------------------------------------------------------------|x6
D|----------------------------------------------------------------------|
A|------------------5-5-5-5-5-5-5-5-------------------------------------|
E|-7-7-7-7-7-7-7-7-7---------------3-3-3-3-3-3-3-3-3-3-0-0-0-0-0-0-0-0--|

Chorus

G|----------------------------------------------------------------------|x4
D|----------------------------------------------------------------------|
A|----------------5-5-5-5-5-5-5-5---------------------------------------|
E|-5-5-5-5-5-5-5-5------------------------------------------------------|

2nd Verse  X4

2nd Chorus x8

Bass comes in at 2:45 on break down

3rd Verse x4

3rd Chorus x8

outro same as verse x4
            
Submit corrections

↑ Back to top | Tablatures and chords for acoustic guitar and electric guitar, ukulele, drums are parodies/interpretations of the original songs. You may use it for private study, scholarship, research or language learning purposes only